Циганска сватба


Изпълнител: Тото Н

Изпратил: ben4 

Интро
-------1----------------------------------------------1----------------|
---------2----------6---4-------------4-----------------------1--------|
--------------------------6-----------------5--------------------------|
----3------------6-----------------6-----6---------3------3------------|
-1-----------4---------------------------------------------------------|
-------------------------------4---------------1-----------------------|




-------1---------------------------------------------------------------|
---------2----------6---4-------------4-----------------1-2-1----------|
--------------------------6-----------------5---------------- 3-1------|
----3------------6-----------------6-----6---------3-------------------|
-1-----------4---------------------------------------------------------|
-------------------------------4---------------1-----------------------|



Соло (върви успоредно с горните разложени акорди)

-----------------------------------------------------------------------|
-3-6-----3-------------------------------------------------------------| 
------6-------3-5-5---3------------------------------------------------|
-------------------------6--4--3---------------------------------------|
-----------------------------------------------------------------------|
-----------------------------------------------------------------------

акорди за китара

акорди за пиано

видео клип

https://www.youtube.com/watch?v=jysjDYXzErQ

© 2007-2020 akordite.com - Акорди и таблатури на български песни