Юнски ден


Изпълнител: Георги Минчев

Музика: Георги Минчев
Албум: Бяла тишина
Изпратил: bgguitarist95 

соло1
g 0-0-00--0-0-00--0-0-00--0-0-0-0-----
d 5-3-20--5-3-20--5-3-20--5-3-2-0-0---
a ---------------------------------30-
e -----------------------------------3

Gb      B        Gb
Сам в този тих ден,
Abm   Ebm     Fb B Db
Сам тихо вървя.
Gb     B        Gb
Ден, силно зелен,
Abm     Db         B  Gb
Ден, с дъх на трева.
Bb          Ebm
Стъпвам едвам,
Db         Gb
Чудно е сам.
Ebm        B
А след това,
  Ab           Db
Знам ли, не знам!

соло1(1)
g 0-0-00--0-0-00--0-0-00--0-0-0-0--------
d 5-3-20--5-3-20--5-3-20--5-3-2-0-20-----
a -----------------------------------30--
e --------------------------------------3

Сам целият ден,
Сам аз съм в света.
Ден, сам като мен,
Ден юнски в света.

соло2
e 8-----------------------------8-----------------------------------
b --8-109108----------------------8-109108-----------------108------
g -------------10--98----7-6-7---------------10--98-----------10----
d -------------------10----------------------------10-10--------9---

Стъпвам едвам,
Чудно е сам.
А след това,
Знам ли, не знам!

соло1

Па-па-ба-ба-па-ба-ба...

Край: 
B Gb B Gb х4 Fb B Gb

Чуйте песента и ще изсвирите солата с точните нотни трайности

акорди за китара

акорди за пиано

© 2007-2020 akordite.com - Акорди и таблатури на български песни