До кога?


Изпълнител: Некролог

Изпратил: georgimet

Cm A E B(х2)

Cm             A           E   B
В студени стаи бродят ветровете
Часовниците тихо си мълчат, мълчат.
И пожълтели снимки по стените висят
Прашни книги спомени шептят
Cm
До кога, до кога?

Ще ме събужда без да съм запивал
Студена болка в моята душа? До кога?
А ти ме гледаш тихо от стената, мм
С усмивка нежна някога била- До кога? 
До кога? До кога?

E         B
Как да ти кажа 
         Cm             A              E     B
колко ме боли, колко ме боли, колко ме боли сега
E         B
Какво ми остана? 
Cm                          A              B     E
Само спомени, само спомени, само спомени, само сълзи

Соло 1:
e-5-------5-5h7~~~-9-10-9h10---------
B-7-8-7-8----------------------12~~~-
G-7----------------------------------
D-7----------------------------------
A------------------------------------
E------------------------------------


e-14-12----12------------------------------
B-------15----15-14-15-14-12-14-12---------
G----------------------------------14—14/16~~
D------------------------------------------
A------------------------------------------
E------------------------------------------


(мелодия 1)                (мелодия 2)
Е—0h2—0~~-----------------|--2h3p2~~--5-5/7~~~-
B----------3-2~~----------|--------------------
G----------------2—2h4~~~-|--------------------

Понякога си мисля, че това е (мелодия 1)
илюзия или пък само сън, но не е(мелодия 2)
Просто вече времето е спряло за мен
Ме отминават тихо ден след ден- до кога? 
До кога? До кога?


Как да ти кажа 
колко ме боли, колко ме боли, колко ме боли сега
Какво ми остана? 
Само спомени, само спомени само спомени  само сълзи

A         B             E
Но накрая знам ще дойде ден
Ще стоя до теб а ти до мен
Ще ми подариш усмивка някога 
била, и ще полетим във вечността

Соло 2

В студени стаи бродят ветровете
Часовниците тихо си мълчат, мълчат.
И пожълтели снимки по стените висят
Прашни книги спомени шептят.
До кога, до кога?


акорди за китара

акорди за пиано

© 2007-2020 akordite.com - Акорди и таблатури на български песни