[Всички песни]
[Скрий Акордите]
[Редактирай песента]

Печат
Гама
C : G : D : A : E : B : F# : C# : F : Bb : Eb : Ab : Db : Gb

Вярвам в теб - Интро


Изпълнител: Киора

Изпратил: gchorbov 

E|---2--0--2--0---4--0--4--0----5--0--5--0----7--0--7--0----8--0--8--0----10--0--10--0----12--0--12--0----9---
B|--------------------------------------------------------------------------------------------------------10--
G|--------------------------------------------------------------------------------------------------------11--
D|------------------------------------------------------------------------------------------------------------
A|------------------------------------------------------------------------------------------------------------
E|---5--0--5--0---7--0--7--0----8--0--8--0----7--0--7--0----5--0--5--0----7---0--7---0----8---0--8---0--------



E|-----5-----5--7--5-----0-----8-----8--10--8--7---------5-----5--7--5-----0-----8-----8--8/10-----10--8--7------
B|--5-----5-----------8-----------8---------------10--------5-----------8-----------8------------------------10--
G|---------------------------------------------------------------------------------------------------------------
D|---------------------------------------------------------------------------------------------------------------
A|---------------------------------------------------------------------------------------------------------------
E|---------------------------------------------------------------------------------------------------------------



E|--5-----5--7--5-----0-----8-----8--10--8--7---------5-----5--7--5-----0-----8-----8--8/10-----12--
B|-----5-----------8-----------8---------------10--------5-----------8-----------8--------------10--
G|--------------------------------------------------------------------------------------------------
D|--------------------------------------------------------------------------------------------------
A|--------------------------------------------------------------------------------------------------
E|-------------------------------------------------------------------------------------------------

акорди за китара

акорди за пиано

© 2007-2020 akordite.com - Акорди и таблатури на български песни