[Всички песни]
[Покажи Акордите]
[Редактирай песента]

Печат
Гама
C : G : D : A : E : B : F# : C# : F : Bb : Eb : Ab : Db : Gb

Диктовка


Изпълнител: Сигнал
Текст: Захари Петров
Музика: Дечо Таралежков
Албум: "Каскадьори" 1 (1981)
Изпратил: ivchovarna

Интро:

Ритъм китара : 4/4 [G][Bm7][Em][Bm][C][G][Am][Am7 D7][G][G]

Соло китара :

e|------------------------------------------------------------------------------------------------------------------|
B|------------------------------------------------------------------------------------------------------------------|
G|14b-14b-----14-14--14b-14--14-----14-12b----11-11--12-14--11---7b-7b--7-7--9-----------------5-7-9---12-11-----12b|
D|----------------------------------------------------------------------------7-9--7-5---7-7-9----------------------|
A|------------------------------------------------------------------------------------------------------------------|
E|------------------------------------------------------------------------------------------------------------------|


Куплет 1 :

Потракват бързите клавиши и ето вече близо час
една машинописка пише каквото й диктувам аз.
Една машинописка ловка, прилежно свела е глава.
Но виж -  във моята диктовка, промъкват се други слова.
Промъкват се други слова.


Припев :

Аз те обичам безмерно! В тебе съм влюбен, пиши го!
Bсичко без теб ми е черно, сякаш е черно индиго.
Мойто сърце се е спряло, cамо на тебе не крия.
Всичко  със теб ми е бяло, сякаш е бяла хартия.


Ритъм китара : [G][Bm7][Em][Bm][C][G][Am][Am7 D7][G][G]

Соло китара :

e|------------------------------------------------------------------------------------------------------------------|
B|------------------------------------------------------------------------------------------------------------------|
G|14b-14b-----14-14--14b-14--14-----14-12b----11-11--12-14--11---7b-7b--7-7--9-----------------5-7-9---12-11-----12b|
D|----------------------------------------------------------------------------7-9--7-5---7-7-9----------------------|
A|------------------------------------------------------------------------------------------------------------------|
E|------------------------------------------------------------------------------------------------------------------|



Куплет 2 :

Сърцето ми така лудува, а тя все пише без да спре.
а тя се прави че не чува, а тя не ще да разбере.
И мене страшно ми се иска безкрай да продължи това -
На нейната шумна машина да пишеме тези слова.
да пишеме тези слова.


Припев :

Аз те обичам безмерно! В тебе съм влюбен, пиши го!
Bсичко без теб ми е черно, сякаш е черно индиго.
Мойто сърце се е спряло, cамо на тебе не крия.
Всичко  със теб ми е бяло, сякаш е бяла хартия.



Ритъм  китара :  [G][Bm7][Em][Bm][C][G][Am][Am7 D7][G][G]

Соло китара :

Ла лаааааа ла ла ...
e|------------------------------------------------------------------------------------------------------------------|
B|------------------------------------------------------------------------------------------------------------------|
G|14b-14b-----14-14--14b-14--14-----14-12b----11-11--12-14--11---7b-7b--7-7--9-----------------5-7-9---12-11-----12b|
D|----------------------------------------------------------------------------7-9--7-5---7-7-9----------------------|
A|------------------------------------------------------------------------------------------------------------------|
E|------------------------------------------------------------------------------------------------------------------|



акорди за китара

акорди за пиано

видео клип


© 2007-2020 akordite.com - Акорди и таблатури на български песни

Вход






Забравена парола
Нямате достъп?
Регистрирайте се!!!

Статистика

Песни: 1745
Потребители: 15512

В момента онлайн:

8 госта и 1 потребител
  • ivrizhova