[Всички песни]
[Покажи Акордите]
[Редактирай песента]

Печат
Гама
C : G : D : A : E : B : F# : C# : F : Bb : Eb : Ab : Db : Gb

Добра душа


Изпълнител: Георги Минчев
Текст: Георги Минчев
Музика: Петър Гюзелев
Албум: "История с китара" (1999)
Изпратил: ivchovarna

интро :

e|-------------------------------------------------------------------------------------------|
B|-------------------------------------------------------------------------------------------|
G|-------------------------------------------------------------------------------------------|
D|-------------------------------------------------------------------------------------------|
A|---2-5h----4-5-4-5-2---------2-5h----4-5-5-2-------2-5h---4-5-4-5-2------------------------|
E|0-4------------------4----0-4-------------------0-4-----------------4----------------------|

(последната част от интрото не съм я измъдрил)

E-E7-E-E7

Куплет 1 :


Мойто га[E]дже напоследъл си мисли че е влак[E7].

На вся[E]ка гара спира, взима пътница и пак.[E7]

Па[A]к ме баламосва че съм нейн герой.[A7]

И [E]аз добра душа - прощавам без бой[E7][E].

E-E7 E-E7 E-E7 B-A-B-A
E-E7

Куплет 2 :


Но к[E]во си мисля тя? Че ще ми се крещи [E7]?

Ще може ця[E]л живот на малкият си пръст да ме върти [E7[?]

А бе,мо[A]йто момиче, аз както си мълча [A7] -

така на пъ[E]рвото дърво ще те закача [E7] [E].


Припев :


Но т[B]я,жената е доста странно съ[A]щество.

Хем те гл[B]еда в очите, хем те лъже - да се пи[A]таш за какво?


соло :

E-E7 E-E7
A-A7 E-E7
B-B  A-A
B-B  A-A  E

E-E7  E-E7


Куплет 3 :


От до[E]брата си душа си пазтя цял живот [E7].

И въп[E]реки това - пак ми е гот [E7].

Но нау[A]чих едно - да не вярвам на жени [A7].

И при пъ[E]рва възможност - да бягам настрани [E7].


Припев :


Но т[B]я,жената е доста странно съ[A]щество.

Хем те гл[B]еда в очите, хем те лъже - да се пи[A]таш за какво?



Аутро :

e|-------------------------------------------------------------------------------------------|
B|-------------------------------------------------------------------------------------------|
G|-------------------------------------------------------------------------------------------|
D|-------------------------------------------------------------------------------------------|
A|---2-5h----4-5-4-5-2---------2-5h----4-5-5-2-------2-5h---4-5-4-5-2------------------------|
E|0-4------------------4----0-4-------------------0-4-----------------4----------------------|




акорди за китара

акорди за пиано

© 2007-2020 akordite.com - Акорди и таблатури на български песни

Вход






Забравена парола
Нямате достъп?
Регистрирайте се!!!

Статистика

Песни: 1639
Потребители: 14992

В момента онлайн:

1 гост