[Всички песни]
[Покажи Акордите]
[Редактирай песента]

Печат
Гама
Am : Em : Bm : F#m : C#m : G#m : D#m : A#m : Dm : Gm : Dm : Fm : Bbm : Ebm : Abm

Веселина


Изпълнител: Щурците

Изпратил: mart

------------------
------------------
------------------
--------0---------
-2--0---------(0)-
------2-----------
x4
1.Ние двама не спим, ние двама вървим,
а градът е голям и безлюден и ням.
Наш е целия свят, наш е целия град,
наша е нощта, наша е любовта.

Припев:
Веселина, Веселина,
моя весела душа.
Полунощ отдавна мина,
полунощ отдавна мина,
да се движиме пеша.
Ааа...

2.Пак рисува за нас, Пикасо в тоя час
Има Сумак за нас пак изпада в екстаз.
Чарли Чаплин сега с малко смешна тъга
спомня пак младостта и подсвирква с уста.

Припев:
Веселина, Веселина,
моя весела душа.
Полунощ отдавна мина,
полунощ отдавна мина,
но ще ходиме пеша.
Ааа...

/соло/
C#m
--------------------------------------------------------
--------------------------------------------------------
--------------------------------------------------------
-6--4-6-4-2--------------------------------------4------
--------------6--7--6--4--4-6-4--------------4-6---6-4--
--------------------------------4-6-4---4-6-------------

3.И Стравински и той, не намира покой,
тази нощ до зори, той за нас ще твори
всеки хубав поет, пише всеки свой ред
пише стих посветен и на теб и на мен

Припев:
Веселина, Веселина,
ти си весела душа.
Полунощ отдавна мина,
полунощ отдавна мина,
да се любиме пеша.
Ааа..

акорди за китара

акорди за пиано

видео клип


© 2007-2020 akordite.com - Акорди и таблатури на български песни

Вход






Забравена парола
Нямате достъп?
Регистрирайте се!!!

Статистика

Песни: 1584
Потребители: 14666

В момента онлайн:

5 госта и 2 потребителя
  • Stanislaw
  • evega