[Всички песни]
[Покажи Акордите]
[Редактирай песента]

Печат
Гама
C : G : D : A : E : B : F# : C# : F : Bb : Eb : Ab : Db : Gb

Високото момиче


Изпълнител: Фактор

Изшратил: pulse@mail.bg



bass

G||------------------|-------1--1-4--4-1--4-|-------1--1-4--4-1---4-|
D||------------------|--2--2----------------|--2--2-----------------|
A||------------------|----------------------|-----------------------|
E||------------------|----------------------|-----------------------|



-------1--1-4--4-1---4-|-------1--1-4--4-1-----|----------------------|
--2--2-----------------|--2--2---------------2-|------------2--2----2-|
-----------------------|-----------------------|--0--0-4--4------4----|
-----------------------|-----------------------|----------------------|



-----------------------|-------1--1-4--4-1---4-|-------1--1-4--4-1-----|
------------2--2-----2-|--2--2-----------------|--2--2---------------2-|
--0--0-4--4------4-----|-----------------------|-----------------------|
-----------------------|-----------------------|-----------------------|



----------------------|-----------------------|----------------------|
-------1--1-4--4-1----|------------2--2-------|--2--2-0--0-----------|
--2--2--------------2-|--0--0-4--4------4---0-|------------4--4-3--3-|
----------------------|-----------------------|----------------------|



---------------------|--------1--1-4--4-1---4-|-------1--1-4--4-1---4-|
---------------------|--2---2-----------------|--2--2-----------------|
-----2-2--2----------|------------------------|-----------------------|
---------------------|------------------------|-----------------------|



-------1--1------1---4-|-------1--1-4--4-1-----|------------------------|
--2--2------2--2-------|--2--2---------------2-|-------------2--2-----2-|
-----------------------|-----------------------|--0---0-4--4------4-----|
-----------------------|-----------------------|------------------------|



----------------------0-|--------1--1-4--4-1---4-|-------1--1-4--4-1-----|
-------------2--2-4-----|--2---2-----------------|--2--2---------------2-|
--0---0-4--4------------|------------------------|-----------------------|
------------------------|------------------------|-----------------------|



--0----0----0----0----|------------2--2-------|------------------------|
----------------------|--0--0-4--4------4---0-|-------------2--2-------|
----------------------|-----------------------|--0---0-4--4------4---0-|
----------------------|-----------------------|------------------------|



-----------------------|--------1--1-4--4-1-----|-----------------------|
-------1----4----1-----|--2---2---------------2-|-----------------1---4-|
--2------------------2-|------------------------|-----2-2--2----2-------|
-----------------------|------------------------|-----------------------|



--------1--1-4--4-1---4-|-------1--1-4--4-1---4-|-------1--1-4--4-1---4-|
--2---2-----------------|--2--2-----------------|--2--2-----------------|
------------------------|-----------------------|-----------------------|
------------------------|-----------------------|-----------------------|



-------1--1-4--4-6---7-|------------------------|-----------------------|
--2--2-----------------|-------------2--2-----2-|------------2--2-------|
-----------------------|--0---0-4--4------4-----|--0--0-4--4------4---0-|
-----------------------|------------------------|-----------------------|



-------1---1-4--4-1---4-|-------1--1-4--4-1-----|-----------------------|
--2--2------------------|--2--2---------------2-|-------1--1-4---1------|
------------------------|-----------------------|--2--2------------2--0-|
------------------------|-----------------------|-----------------------|



--------------------0-|-------1--1-4--4-1-----|-----------------------|
-----------2--2-4-----|--2--2---------------3-|--------1--1-4--4-1----|
----0-4--4------------|---------------------7-|--2---2--------------2-|
----------------------|-----------------------|-----------------------|



--------1--1-4--4-1---4-|-------1--1-4--4-1---4-|-------1--1------1---4-|
--2---2-----------------|--2--2-----------------|--2--2------2--2-------|
------------------------|-----------------------|-----------------------|
------------------------|-----------------------|-----------------------|



-------1--1-4--4-1-----|------------------------|----------------------0-|
--2--2---------------2-|-------------2--2-----2-|-------------2--2-4-----|
-----------------------|--0---0-4--4------4-----|--0---0-4--4------------|
-----------------------|------------------------|------------------------|



--------1--1-4--4-1---4-|-------1--1-4--4-1-----|--0----0----0----0----|
--2---2-----------------|--2--2---------------2-|----------------------|
------------------------|-----------------------|----------------------|
------------------------|-----------------------|----------------------|



------------2--2-------|------------------------|-----------------------|
--0--0-4--4------4---0-|-------------2--2-------|-------1----4----1-----|
-----------------------|--0---0-4--4------4---0-|--2------------------2-|
-----------------------|------------------------|-----------------------|



--------1--1-4--4-1-----|-----------------------|--------1--1-4--4-1---4-|
--2---2---------------2-|-----------------1---4-|--2---2-----------------|
------------------------|-----2-2--2----2-------|------------------------|
------------------------|-----------------------|------------------------|



-------1--1-4--4-1---4-|-------1--1-4--4-1---4-|-------1--1-4--4-6---7-|
--2--2-----------------|--2--2-----------------|--2--2-----------------|
-----------------------|-----------------------|-----------------------|
-----------------------|-----------------------|-----------------------|



------------------------|-----------------------|-------1---1-4--4-1---4-|
-------------2--2-----2-|------------2--2-------|--2--2------------------|
--0---0-4--4------4-----|--0--0-4--4------4---0-|------------------------|
------------------------|-----------------------|------------------------|



-------1--1-4--4-1-----|-----------------------|--------------------0-|
--2--2---------------2-|-------1--1-4---1------|-----------2--2-4-----|
-----------------------|--2--2------------2--0-|----0-4--4------------|
-----------------------|-----------------------|----------------------|



-------1--1-4--4-1-----|-----------------------|-------1--1-4--4-1---4-|
--2--2---------------3-|--------1--1-4--4-1----|--2--2-----------------|
---------------------7-|--2---2--------------2-|-----------------------|
-----------------------|-----------------------|-----------------------|



-------1--1-4--4-1---4-|-------1--1-4--4-1-----|----------------0----1---|
--2--2-----------------|--2--2---------------2-|--2--2--3---4------------|
-----------------------|-----------------------|-------------------------|
-----------------------|-----------------------|-------------------------|



-----------------------|-----------------------|-------1--1-4--4-1---4-|
------------2--2-----2-|------------2--2-------|--2--2-----------------|
--0--0-4--4------4-----|--4--0-4--4------4---0-|-----------------------|
--3--------------------|-----------------------|-----------------------|



-------1--1-4--4-1-----|-----------------------|-----------------------|
--2--2---------------2-|-------1--1-4--4-------|------------2--2-----2-|
-----------------------|--2--2-----------2---1-|--0--0-4--4------4-----|
-----------------------|-----------------------|-----------------------|



----------------------|-----------------------|--------1--1-4--4-1---4-|
--2--2-0--0-----------|-------1--1-4--4-1---4-|--2---2-----------------|
------------4--4-3--3-|--2--2-----------------|------------------------|
----------------------|-----------------------|------------------------|



-------1--1-4--4-1---4-|-------1--1------1---4-|-------1--1-4--4-1-----|
--2--2-----------------|--2--2------2--2-------|--2--2---------------2-|
-----------------------|-----------------------|-----------------------|
-----------------------|-----------------------|-----------------------|



------------------------|----------------------0-|--------1--1-4--4-1---4-|
-------------2--2-----2-|-------------2--2-4-----|--2---2-----------------|
--0---0-4--4------4-----|--0---0-4--4------------|------------------------|
------------------------|------------------------|------------------------|



-------1--1-4--4-1-----|--0----0----0----0----|------------2--2-------|
--2--2---------------2-|----------------------|--0--0-4--4------4---0-|
-----------------------|----------------------|-----------------------|
-----------------------|----------------------|-----------------------|



------------------------|-----------------------|--------1--1-4--4-1-----|
-------------2--2-------|-------1----4----1-----|--2---2---------------2-|
--0---0-4--4------4---0-|--2------------------2-|------------------------|
------------------------|-----------------------|------------------------|



-----------------------|--------1--1-4--4-1---4-|-------1--1-4--4-1---4-|
-----------------1---4-|--2---2-----------------|--2--2-----------------|
-----2-2--2----2-------|------------------------|-----------------------|
-----------------------|------------------------|-----------------------|



-------1--1-4--4-1---4-|-------1--1-4--4-6---7-|------------------------|
--2--2-----------------|--2--2-----------------|-------------2--2-----2-|
-----------------------|-----------------------|--0---0-4--4------4-----|
-----------------------|-----------------------|------------------------|



-----------------------|-------1---1-4--4-1---4-|-------1--1-4--4-1-----|
------------2--2-------|--2--2------------------|--2--2---------------2-|
--0--0-4--4------4---0-|------------------------|-----------------------|
-----------------------|------------------------|-----------------------|



-----------------------|--------------------0-|-------1--1-4--4-1-----|
-------1--1-4---1------|-----------2--2-4-----|--2--2---------------3-|
--2--2------------2--0-|----0-4--4------------|---------------------7-|
-----------------------|----------------------|-----------------------|



-----------------------|------------------|------------------|
--------1--1-4--4-1----|------------------|------------------|
--2---2--------------2-|------------------|------------------|
-----------------------|------------------|------------------|



------------------|------------------|------------------|------------------|
------------------|------------------|------------------|------------------|
------------------|------------------|------------------|------------------|
------------------|------------------|------------------|------------------|



------------------|--------------------|---------------------|
------------------|--------------2-----|---------------------|
------------------|------------------2-|-------------2-1---0-|
------------------|--------------------|-------------------7-|



--------------------|----------------------|-------------------|
--------------------|--2----0--------------|-------------------|
------------0-1---2-|------------4----3----|--2------2---------|
--------------------|----------------------|-------------------|



--------1--1-4--4-1---4-|-------1--1-4--4-1---4-|-------1--1-4--4-1---4-|
--2---2-----------------|--2--2-----------------|--2--2-----------------|
------------------------|-----------------------|-----------------------|
------------------------|-----------------------|-----------------------|



-------1--1-4--4-6---7-|------------------------|-----------------------|
--2--2-----------------|-------------2--2-----2-|------------2--2-------|
-----------------------|--0---0-4--4------4-----|--0--0-4--4------4---0-|
-----------------------|------------------------|-----------------------|



-------1---1-4--4-1---4-|-------1--1-4--4-1-----|-----------------------|
--2--2------------------|--2--2---------------2-|-------1--1-4---1------|
------------------------|-----------------------|--2--2------------2--0-|
------------------------|-----------------------|-----------------------|



--------------------0-|-------1----2----3----|--4---6--8---9-----------|
-----------2--2-4-----|--2-------------------|-------------------------|
----0-4--4------------|----------------------|--------------------7----|
----------------------|----------------------|-------------------------|



------------------|-------------------|---|---|---|---||
------------------|-------------------|---|---|---|---||
------------------|-------------------|---|---|---|---||
------------------|-------------------|---|---|---|---||


акорди за китара

акорди за пиано

видео клип


© 2007-2020 akordite.com - Акорди и таблатури на български песни

Вход






Забравена парола
Нямате достъп?
Регистрирайте се!!!

Статистика

Песни: 1639
Потребители: 14953

В момента онлайн:

5 госта