[Всички песни]
[Скрий Акордите]
[Редактирай песента]

Печат
Гама
Am : Em : Bm : F#m : C#m : G#m : D#m : A#m : Dm : Gm : Dm : Fm : Bbm : Ebm : Abm

Недадените


Изпълнител: Стефан Вълдобрев

Музика: Стефан Вълдобрев
Албум: Музика от сериала "Недадените"
Изпратил: otli4ni4kata 


E |-----------------------------------------------------------------
B |----0-12----0----0-------13---13-----------13----13-------13--12-
G |-----------------------------------------------------------------
D |-----------------------------------------------------------------
A |--------------------15---------------15---------------15---------
E |--0--------------------------------------------------------------




E |-------------0----0---0--0---0-----------20---20--20-----19--19--
B |-------------------------------------12--------------------------
G |---------------------------------12------------------------------
D |--------13-------------------------------------------------------
A |--12-------------------------------------------------------------
E |-----------------------------------------------------------------


E |--15----19--17---17---20---15-15-15-15--------------------12-----
B |------------------------------------------------------0----------
G |----------------------------------------12-11---11---------------
D |-----------------------------------------------------------------
A |-----------------------------------------------------------------
E |-----------------------------------------------------------------


E |----------0-----------------------------11-----------------------
B |--0--12---------------13----13-----12----------------------------
G |----------------12-----------------------------------------------
D |-----------------------------------------------------------------
A |-----------------------------------------------------------------
E |--------------------------------------------14--11------7-----12-



акорди за китара

акорди за пиано

видео клип


© 2007-2020 akordite.com - Акорди и таблатури на български песни

Вход






Забравена парола
Нямате достъп?
Регистрирайте се!!!

Статистика

Песни: 1745
Потребители: 15569

В момента онлайн:

1 гост