[Всички песни]
[Скрий Акордите]
[Редактирай песента]

Печат
Гама
Am : Em : Bm : F#m : C#m : G#m : D#m : A#m : Dm : Gm : Dm : Fm : Bbm : Ebm : Abm

Болката отляво


Изпълнител: Васил Найденов
Текст: Маргарита Петкова
Музика: Стефан Димитров
Изпратил: UGLY_KID 

INTRO:

e |--1-----------------------0-----------1-------------|
B |--------------------3-------------------------------|
G |-----------------2-------------(2)---------(2)------|
D |--0-------------------------------------------------|
A |--------------------------4-------------------------|
E |----------------------------------------------------|

e |--5-----------------------10----------------10------|
B |-----------------------10---------------------------|
G |--------------------10------------------------------|
D |-----------------10---------------------------------|
A |--3-------------------------------------------------|
E |--------------------------7-------------------------|

e |--10----------|--------------||
B |--11-----11---|--10-----11---||
G |--12----------|--9------11---||
D |--------------|--------------||
A |--------------|--------------||
E |--------------|--------------||




    Dm           (Dm7)    Gm      (Gm7)
     Странно просветлява   смръщеният ден,
       
    C         C7    F                  C
     спомен загорчава, тя стои пред мен.
     
 Dm          Db      F         E7
     Искам да докосна пръстите и пак,
   
  Bb7                A7
     но не зная просто как.
     
     
     
     
     
        
     e|--0-----0----------|
     A|--2-----3-----3/5--|
     G|--0-----0----------|
     D|--2-----2----------|
     A|--0-----0----------|
     E|-------------------|
         A7 A7sus4 
         Но  зна-     я –
     
  Dm              Gm
     миналото мина, бъдещето - не.
     
  C                   F              C
     Ако се докоснем в кратък миг поне,
     
  Dm         Db    F           Bbmaj7
     ще избухне огън, ще ни върне там
     
  Gm        A7    Dm   D
     няма връщане назад.
     
ПРИПЕВ:
  Gm    C       F    Dm
     Тяя-я   бе любоooo-oв,
     
  Gm    A        Dm  Dm7
     тяя-я    бе любоoo-ooв,
     
 Bbmaj7  E7      Am
     реeeee-же като нож,
     
    Gm            A7
     и няма ден, и няма нощ.

...
     
C        х32010
C7       х32310
Db       х43121
Dm       хх0231
Dm7      хх0211
E7       022130
F        133211
Gm       355333
Gm7      353333
A7       х02020
A7sus4   х02030
Bbmaj7   х13231
Bb7      х1313

акорди за китара

акорди за пиано

© 2007-2020 akordite.com - Акорди и таблатури на български песни