[Всички песни]
[Покажи Акордите]
[Редактирай песента]

Печат
Гама
C : G : D : A : E : B : F# : C# : F : Bb : Eb : Ab : Db : Gb

Химн на Република България


Изпълнител: -
Текст: Цветан Радославов
Музика: Цветан Радославов
Изпратил: yordanpetrov

Интро:


Горда Стара планина

до ней Дунава синей,

слънце  Тракия  огрява,

над Пирина пламеней.Родино


Припев:

Мила Родино,

ти си земен рай,

твойта хубост,твойта прелест,

ах, те нямат край. Родино…


Интро:

C   G   Am  G   C   Аm  Е   Аm  Е   F
E ------0---------------0-----------------------
B ------1---3---1---3---1-------0---------------
G ------0---0---2---0---0---2---1---2---1-------
D ------2---0---2---0---2---2-------2---2---3---
A ------3---2---0---2---3-------------------3---
E ----------3-------3---------------------------


Am           E   Am E  Am
E -----------------------------------------------
B ------------------0---1--0---------------------
G ----------2---2---1---2--1--2------------------
D ------2---2---2-------------2------------------
A ------0----------------------------------------
E -----------------------------------------------
Горда    Стара  планина



Am        E  Am E  Am
E ------------------------------------------------
B ----------------0--1--0-------------------------
G ----------2---2-1--2--1--2----------------------
D ------2---2---2----------2----------------------
A ------0-----------------------------------------
E ------------------------------------------------
до  ней  Дунава синей



Am        E  Dm  Am E Am
E -------------------------------------------------
B ---------------0--3---1--0-----------------------
G ---------2--2--1--2---2--1-2---------------------
D -----2---2--2--------------2---------------------
A -----0-------------------------------------------
E -------------------------------------------------
слънце  Тракия   огрява,



E   Am E  F  E     Am Е  Am Dm
E -------------------------------------------------
B --------------------------0--1--3----------------
G ----1---2--1--------1--2--1--2--2----------------
D ----2---2--2-3---2--2--2-------------------------
A -------------3---2-------------------------------
E -------------------------------------------------
над Пирина  пламеней. Родино…



C  G  Am G  C
E ------0-----------0------------------------------
B ------1--3--1--3--1------------------------------
G ------0--0--2--0--0------------------------------
D ------2--0--2--0--2------------------------------
A ------3--2--0--2--3------------------------------
E ---------3-----3------------------------------
Пр:  Мила  Родино




Dm  Am  E  Am Am   C
E -----------------------0--0--0--0--0-------------
B -----3---1--0-----1----1--1--1--1--1-------------
G -----2---2--1--2--2----0--0--0--0--0-------------
D -----0---2--2--2-------2--2--2--2--2-------------
A ---------------0--0----3--3--3--3--3-------------
E -------------------------------------------------

ти си земен рай




Dm   Am E   Am   E  Am  E  F
E-------------------------------------------------
B-----3---1--0------------------------------------
G-----2---2--1---2----1--2--1---2-----------------
D-----0---2--2---2----2--2--2---3-----------------
A----------------0----2--0--2---3-----------------
E-------------------------------------------------
твойта хубост, твойта прелест



E   F  E     Am    Е  Am Dm
E--------------------------------------------------
B------------------------0--1--3-------------------
G-----1---2-----1--2-----1--2--2-------------------
D-----2---3--2--2--2-----2--2--0-------------------
A-----2---3--2-----0-------------------------------
E---------------0-----------------------------------
ах, те нямат край. Родино ...



Забележка: Припева завършва по следния начин:

E   F  E     Am
E--------------------------------------------------
B--------------------------------------------------
G-----1---2-----1--2-------------------------------
D-----2---3--2--2--2-------------------------------
A-----2---3--2-----0-------------------------------
E---------------0----------------------------------
ах, те нямат край.


За корекции моля пишете на: yordanspetrov@yahoo.com


акорди за китара

акорди за пиано

видео клип


© 2007-2017 akordite.com - Акорди и таблатури на български песни