[Всички песни]
[Покажи Акордите]
[Редактирай песента]

Печат
Гама
C : G : D : A : E : B : F# : C# : F : Bb : Eb : Ab : Db : Gb

Клетва


Изпълнител: Щурците

Изпратил:  pulse (pulse@mail.bg)
Соло изпратено от: mart



fill1:
e--------------------------------------------------------
B------------------3/5----3----------------------------
G----------2--------------------------------------------
D-----2-------------------------------------------------
A--------------------------------------------------------
E--------------------------------------------------------

Кълна се
Никога да не забравям теб
С когото
пет години всичко съм делил
Кълна се
Попадне ли  в беда  един от нас......уо - о -о

Да му подам ръка и в лош за мене час 			/х2


Кълна се
попадна ли в беда да не предавам
Приятелските грешки да прощавам
Кълна се в дявола и в бога
Да сторя аз за теб каквото мога


Заклех се
Заклех се
Заклех се
Заклех се
Заклех се

соло:

D             Am               G
E||----------------------------------------------------|
B||-------10--12---10~---------------------------------|
G||--/11------------------------------9--11--7s--9-----|
D||-------------------------------------------------9~-|
A||----------------------------------------------------|
Е||----------------------------------------------------|

Em                D
E|---------------------------------------------------|
B|---------------------------------------------------|
G|------------------------------7~-------------------|
D|------------------------/9-------------------------|
A|-------10--9--7~-----------------------------------|
E|---------------------------------------------------|
Am                  G     Em         D
E||-------------------------14---15---14~----------|
B||-------10--12--12S-15---------------------------|
G||--/11-------------------------------------------|
D||------------------------------------------------|
A||------------------------------------------------|
E||------------------------------------------------|
Am                         G                Em
E|---17br------14---------------------------------14-15----|
B|-----------------17br----15--17------15~--------------17-|
G|---------------------------------16----------------------|
D|---------------------------------------------------------|
A|---------------------------------------------------------|
E|---------------------------------------------------------|

D     Am
E||--14-------------------------------|
B||-----15-17-14-15----14-------------|
G||-----------------16----14-16-------|
D||-----------------------------16~---|
A||-----------------------------------|
E||-----------------------------------|

G              C7                        F
E|----------------------------------------12--15----13br--------13--13~|
B|-17br----15------15----18b~--------/13-------------------------------|
G|-------------16------------------------------------------------------|
D|---------------------------------------------------------------------|
A|---------------------------------------------------------------------|
E|---------------------------------------------------------------------


акорди за китара

акорди за пиано

видео клип


© 2007-2017 akordite.com - Акорди и таблатури на български песни