[Всички песни]
[Покажи Акордите]
[Редактирай песента]

Печат
Гама
C : G : D : A : E : B : F# : C# : F : Bb : Eb : Ab : Db : Gb

Богатство


Изпълнител: Тангра

Музика: Борис Карадимчев
Изпратил: pulse@mail.bg (мерси за поправката на Koky)
Редакция: mart


---------------8-7----7------------5--7------------7-----
-8-7-5--7-8-10-8---10-8----8-------7--8-------8-10---8---
-7------7------9------7----9--9----7--7---7-9--------7---
-5-------------------------10---10----5------------------
---------------------------------------------------------
---------------------------------------------------------

1.За мен отдавна хората говорят,
че вечно съм без пукната пара,
но аз със всеки съм готов да споря
дали това е най-важно на света.

2.Живея на последния етаж
в една мансарда, точно под звездите
прозорецът е моята врата
и аз вървя към тях и ги разпитвам.

3.Дали след време тука под звездите,
прозорецът ще има светлина.
дали тогава пак ще слушат Бийтълс
и вечните поети ще четат.

/соло/

--------------------------------------------------------7------
-8-7-5--7-5---5--------8--8----7-------------------8-10---8----
-7----------7---7-5-4--9----9--7--7-9-7--------7-9-------------
-5---------------------10------7--------7-9--------------------
--------------------------------------------10-----------------
---------------------------------------------------------------

-15-14-12--12-15--------------10-12----------------------
-----------------12--10-12-13-------13-10-13--12---------
--------------------------------------------------12--9
---------------------------------------------------------
---------------------------------------------------------
---------------------------------------------------------
8-10-12--10--8-7-5--3--3/15-13----------
8-10-12--10--8-7-5--3----------14-12----
-------------------------------------12-
----------------------------------------
----------------------------------------
----------------------------------------

4.Дали хазяйката ще идва рано
с виенска кифла, с каничка кафе.
И вместо да попита тя за наема  Ууху!
ще се усмихне, ехей - "спахте ли добре"?

5.И пак ли ще звучи невероятно
за някой, ако някой пак твърди,
че има най-голямото богатство -
един прозорец и безброй звезди.


---------------8-7----7------------5--7------------7-----
-8-7-5--7-8-10-8---10-8----8-------7--8-------8-10---8---
-7------7------9------7----9--9----7--7---7-9--------7---
-5-------------------------10---10----5------------------
---------------------------------------------------------
---------------------------------------------------------


акорди за китара

акорди за пиано

видео клип


© 2007-2017 akordite.com - Акорди и таблатури на български песни