[Всички песни]
[Скрий Акордите]
[Редактирай песента]

Печат
Гама
Am : Em : Bm : F#m : C#m : G#m : D#m : A#m : Dm : Gm : Dm : Fm : Bbm : Ebm : Abm

Мое щастие


Изпълнител: Слави Трифонов
Текст: Георги Милчев - Годжи
Музика: Георги Милчев – Годжи, Венелин Венков
Албум: Ние продължаваме
Изпратил: master_night

Intro:
    Dm                     Am  Asus2 Am
e|------3-1------------------------------------------------------|
B|----1--------3/5-3------3-1----0h1-----------------------------|
G|--2---------2---------2------------2---------------------------|
D|---------------------2-----------------------------------------|
A|---------------------------------------------------------------|
E|---------------------------------------------------------------|

    Dm			   Am
e|------3-1------------------------------------------------------|
B|----1--------3/5-3------3-1---1h0------------------------------|
G|--2---------2---------2-----------2-2--------------------------|
D|---------------------2-----------------------------------------|
A|---------------------------------------------------------------|
E|---------------------------------------------------------------|


Am            G          F        C    Cadd9
Пак изглеждаш натъжена и до болка уморена,
Dm         F          G   Am   Asus2  Am
няма ли да спреш, мое щастие?
Am        G           F         Em
Нека само за последно да помоля откровено
Dm          F          G   Am  Asus2  Am
само миг да спреш, мое щастие!

Преход:
F,Am,G,Gsus4

Припев: (х2)
              G    Am
За всяко нещо идва край,
           C      Em
но моля се да има рай,
             Dm
отново да се срещнем там,
      F
да не бъда сам,
     G    Am
само ме познай!

intro:

И сега сами мечтите,
стават сълзите в очите,
няма ли да спреш,мое щастие?
И от прага самотата,
ще помоли на вратата,
само миг да спреш,мое щастие!

Преход:
F,Am,G,Gsus4

Припев: (х2)

solo:
    Dm                       Am
e|---------------------------------------------------------------|
B|----6-6-6------------------------------------------------------|
G|----------9-7-7~~~-5-7-7/9-------------------------------------|
D|-/7------------------------7-7-5/7-7~~~------------------------|
A|---------------------------------------------------------------|
E|---------------------------------------------------------------|

    Dm      F            Am
e|---------------------------------------------------------------|
B|---------------------------------------------------------------|
G|---------------------------------------------------------------|
D|--3-3-3-2------------------------------------------------------|
A|----------5-3---5-3--5/7~~-------------------------------------|
E|---------------------------5--5--------------------------------|

   F              Am         Amsus4 Am
e|--------------------------10-10p8~~~---------------------------|
B|-------6-8-6~~~------------------------------------------------|
G|-----7----------9-9p7-5/7--------------------------------------|
D|---7-----------------------------------------------------------|
A|-8-------------------------------------------------------------|
E|---------------------------------------------------------------|

           Dm            F            Gsus4   G
e|-7--8-10-13--12-12--10-10--8-8-7----8-8-8-8-7------------------|
B|---------------------------------10----------------------------|
G|---------------------------------------------------------------|
D|---------------------------------------------------------------|
A|---------------------------------------------------------------|
E|---------------------------------------------------------------|

Припев:
За всяко нещо идва край,
но моля се да има рай,
отново да се срещнем там,
да не бъда сам,
само ме познай!
За всяко нещо идва край,
но моля се да има рай,
отново да се срещнем там,
да не бъда сам,
само ме познай!(x4)

Gsus4
e-3
B-1
G-0
D-0
A-x
E-3


акорди за китара

акорди за пиано

видео клип


© 2007-2017 akordite.com - Акорди и таблатури на български песни

Вход






Забравена парола
Нямате достъп?
Регистрирайте се!!!

Статистика

Песни: 1490
Потребители: 13511

В момента онлайн:

3 госта и 1 потребител
  • TuNam