[Всички песни]
[Скрий Акордите]
[Редактирай песента]

Печат
Гама
Am : Em : Bm : F#m : C#m : G#m : D#m : A#m : Dm : Gm : Dm : Fm : Bbm : Ebm : Abm

Дулсинея


Изпълнител: Каналето

Изпратил: Бат'Влади (bat_vlado@yahoo.com)



 intro:E-----0---0---0------0--------------
       H-----0---0---0--------0------------
       G-----1---2---1----------1----------
       D-----2---3---2------------2--------
       A-----2---3---2--------------2------
       E-----0---0---0----------------0----


 (A-a-a-a)   E-----F-----G-----F-----G-F-E

       E-----0-----1-----3-----1-----3-1-0-
       H-----0-----1-----3-----1-----3-1-0-
       G-----1-----2-----4-----2-----4-2-1-
       D-----2-----3-----5-----3-----5-3-2-
       A-----2-----3-----5-----3-----5-3-2-
       E-----0-----1-----3-----1-----3-1-0-




   Am Am (пауза)
 1.Кой не зна[Am]е Дулсинея?
   Кой не е живял със не[C]я?
   Я свире[G]те на китара,
   аз да вик[F]на да запея,
   да пла[Dm]ча и да пея Дулсине[E]я

[Am] [C] [G] [F] [Dm] [E]
 2.На сърце ми дупка зее.
   Ах,защо я изкопа?
   Няма вечно да те моля,
   тук се слуша мойта воля,
   ех,нека те огрея Дулсинея!

 ПРИПЕВ:Am G Dm F E

[Am] [C] [G] [F] [Dm] [E]
 3.Време мина ти замина.
   От тогава съм пиян.
   Но когато сняг забръска,
   що ще чиниш ти зимъска,
   дотогава ще изтрезнея,Дулсинея

акорди за китара

акорди за пиано

видео клип


© 2007-2017 akordite.com - Акорди и таблатури на български песни

Вход






Забравена парола
Нямате достъп?
Регистрирайте се!!!

Последни песни



Статистика

Песни: 1411
Потребители: 12531

В момента онлайн:

6 госта и 1 потребител
  • Jon Lord