[Всички песни]
[Скрий Акордите]
[Редактирай песента]

Печат
Гама
Am : Em : Bm : F#m : C#m : G#m : D#m : A#m : Dm : Gm : Dm : Fm : Bbm : Ebm : Abm

Домино


Изпълнител: Спринт
Текст: Юлиана Илиева
Музика: Полина Александрова
Изпратил: batkoljo@mailcity.com

Intro:


E----------------------------------------------------------------
B----------------------------------------------------------------
G----------------------------------------------------------------
D-------------0-----0--2-----------------0-----0--2--0-----------
A--0----0--3-----3------------0----0--3-----3-----------3--0-----
E----------------------------------------------------------------


E----------------------------------------------------------------
B---------------------------------1------1--3--4--3--1-----------
G------------------------0-----2------2-----------------2--------
D-------------0-----0--2-----------------------------------------
A--0----0--3-----3-----------------------------------------------
E----------------------------------------------------------------


Am     C
Питам днес кои сме
G          F
бяха други времена,
Am          C
а днес сме вече ние
G            F
май пораснали деца.

Am      C
Играем си в живота
G            F
не с батерии, а с ум
Am         C
и свикнахме да лъжем,
G                F
нещата стават с малко шум.

C    E        Am          F
А доминото се играе с правила
C        E            Am          G
един на друг приличат от една страна,
C      E         Am        F
Наляво или дясно всеки има коз
C       E           Am         G
излизаш от играта и няма да си бос.

Am        C
Не знам дали не искам
G           F
пак да съм едно дете
Am      C
което пази своя
G              F
малък свят от гласове

Am      C
които му показват
G                F
нещата в други цветове
Am       C
дали и те ни лъжат,
G             F
че всичко е така добре.

C    E        Am          F
А доминото се играе с правила
C        E            Am          G
един на друг приличат от една страна,
C      E         Am        F
Наляво или дясно всеки има коз
C       E           Am         G
излизаш от играта и няма да си бос.


акорди за китара

акорди за пиано

видео клип


© 2007-2017 akordite.com - Акорди и таблатури на български песни

Вход






Забравена парола
Нямате достъп?
Регистрирайте се!!!

Последни песни



Статистика

Песни: 1411
Потребители: 12623

В момента онлайн:

7 госта