[Всички песни]
[Скрий Акордите]
[Редактирай песента]

Печат
Гама
C : G : D : A : E : B : F# : C# : F : Bb : Eb : Ab : Db : Gb

Дива роза


Изпълнител: Дони и Момчил

Изпратил: pulse@mail.bg 


bass
                                                                               
G||------------------|------------------|------------------|------------------|
D||------------------|------------------|------------------|------------------|
A||------------------|------------------|------------------|------------------|
E||------------------|------------------|------------------|------------------|


                                                                            
------------------|------------------|------------------|------------------|
------------------|------------------|------------------|------------------|
------------------|------------------|------------------|------------------|
------------------|------------------|------------------|------------------|


                                                               
--0------0----------|--------------------|--0------0----------|
--------------------|--3-----------------|--------------------|
--------------------|---------3----------|--------------------|
--------------------|--------------------|--------------------|


                                                               
--2-----------------|--------------------|--2-----------------|
---------2----------|--0------0----------|---------2----------|
--------------------|--------------------|--------------------|
--------------------|--------------------|--------------------|


                                                                
--------------------|--------------------|--0------0--------0--|
--3------3----------|---------0----------|---------------------|
--------------------|--3-----------------|---------------------|
--------------------|--------------------|---------------------|


                                                                   
---------------------|--0------0------0-----|--2------------------|
--3------------------|-------------------2--|---------2------2----|
---------3------3----|----------------------|---------------------|
---------------------|----------------------|---------------------|


                                                                   
----------------------|--2------------------|---------------------|
--0------0------0--3--|---------2------2----|--3------3------3----|
----------------------|---------------------|---------------------|
----------------------|---------------------|---------------------|


                                                            
---------------------|------------------|------------------|
----------------0----|------------------|------------------|
--3------3-----------|------------------|------------------|
---------------------|------------------|------------------|


                                                                
--0------0----------|--------------------|--0------0------0----|
--------------------|--------------------|---------------------|
--------------------|--3------3----------|---------------------|
--------------------|--------------------|---------------------|


                                                                
--2-----------------|---------------------|--------------------|
---------2----------|---------------------|--0------0----------|
--------------------|--3------3------3----|--------------------|
--------------------|---------------------|--------------------|


                                                                
--0------0-----------|--------------------|--0------0----------|
------------------0--|--------------------|--------------------|
---------------------|--3------3----------|--------------------|
---------------------|--------------------|--------------------|


                                                                
-------------------|--0------0--------0--|---------------------|
-------------------|---------------------|---------------------|
--3----------------|---------------------|--3------3-----------|
-------------------|---------------------|------------------3--|


                                                                    
--0------0------0--1--|--2-------------------|---------------------|
----------------------|---------2------2--0--|---------------------|
----------------------|----------------------|--3------3------3----|
----------------------|----------------------|---------------------|


                                                                 
---------------------|--0------0----------|---------------------|
--0------0------0----|--------------------|--3------------------|
---------------------|--------------------|---------3------3----|
---------------------|--------------------|---------------------|


                                                                   
--0------0------0--1--|--2------------------|---------------------|
----------------------|---------2------2----|--0------0------0----|
----------------------|---------------------|---------------------|
----------------------|---------------------|---------------------|


                                                                  
---------------------|---------------------|---------------------|
---------------------|--3------3------3----|---------0------0----|
--0------3------3----|---------------------|--3------------------|
---------------------|---------------------|---------------------|


                                                                   
--0------0------0-----|---------------------|--0------0------1----|
-------------------0--|---------------------|---------------------|
----------------------|--3------3------3----|---------------------|
----------------------|---------------------|---------------------|


                                                                   
--2-------------------|---------------------|---------------------|
---------2------2--0--|---------------------|--0------0------0----|
----------------------|--3------3------3----|---------------------|
----------------------|---------------------|---------------------|


                                                                      
--0------0-----------|--0----0--0--0----------|----------------------|
----------------0----|------------------2--0--|----------------------|
---------------------|------------------------|--3------3------3--2--|
---------------------|------------------------|----------------------|


                                                                     
----------------------|---------0------0----|--2--------------------|
---------0------0--1--|--2------------------|-----------------------|
--0-------------------|---------------------|-------3--3------3--2--|
----------------------|---------------------|-----------------------|


                                                                   
----------------------|---------------------|---------------------|
----------------------|--0------0------0----|--2------------------|
--0------0------0--4--|---------------------|---------3------3----|
----------------------|---------------------|---------------------|


                                                                     
-------------------2--|---------2-------------|--0------0-----------|
--0------0------4-----|--0-----------4--2--0--|------------------0--|
----------------------|-----------------------|---------------------|
----------------------|-----------------------|---------------------|


                                                                  
--------------------|--0------0------0--1--|--2------------------|
--------------------|----------------------|---------2------0----|
--3------3----------|----------------------|---------------------|
--------------------|----------------------|---------------------|


                                                                  
----------------------|--------------------|--0------0-----------|
----------------------|--0------0----------|------------------0--|
--3------3------3--4--|--------------------|---------------------|
----------------------|--------------------|---------------------|


                                                                  
--------------------|--0------0------0--1--|--2------------------|
--------------------|----------------------|---------2------0----|
--3------3----------|----------------------|---------------------|
--------------------|----------------------|---------------------|


                                                                   
----------------------|---------------------|--0------0-----------|
----------------------|--0------0-----------|----------------0----|
--3------3------3--4--|----------------0----|---------------------|
----------------------|---------------------|---------------------|


                                                                    
--0------0-----------|----------------------|----------------------|
----------------0----|----------------------|---------0------0--1--|
---------------------|--3------3------3--2--|--0-------------------|
---------------------|----------------------|----------------------|


                                                                     
---------0------0----|--2--------------------|----------------------|
--2------------------|-----------------------|----------------------|
---------------------|-------3--3------3--2--|--0------0------0--4--|
---------------------|-----------------------|----------------------|


                                                                   
---------------------|---------------------|-------------------2--|
--0------0------0----|--2------------------|--0------0------4-----|
---------------------|---------3------3----|----------------------|
---------------------|---------------------|----------------------|


                                                                  
---------2-------------|--0------------0----|--------------------|
--0-----------4--2--0--|--------------------|--------------------|
-----------------------|--------------------|--3------------3----|
-----------------------|--------------------|--------------------|


                                                                   
--0-------------0--1--|--2------------------|---------------------|
-------------0--------|---------2------0----|---------------------|
----------------------|---------------------|--3------------3--4--|
----------------------|---------------------|---------------------|


                                                                 
--------------------|--0------0------0-----|--------------------|
--0------------0----|-------------------0--|--------------------|
--------------------|----------------------|--3------3----------|
--------------------|----------------------|--------------------|


                                                                  
--0------0------0--1--|--2------------------|--------------------|
----------------------|---------2------0----|--------------------|
----------------------|---------------------|--3------3----------|
----------------------|---------------------|--------------------|


                                                                 
--------------------|--0------0----------|----------------------|
--0------0----------|--------------------|----------------------|
--------------------|--------------------|--3------3---------3--|
--------------------|--------------------|----------------3-----|


                                                                  
--0------0------0--1--|--2------------------|--------------------|
----------------------|---------2------0----|--------------------|
----------------------|---------------------|--3------3----------|
----------------------|---------------------|--------------------|


                                                              
--------------------|--0------0----------|-------------------|
--0------0----------|--------------------|--3----------------|
--------------------|--------------------|-------------------|
--------------------|--------------------|-------------------|


                                                              
---------0----------|-------------------|--0------0----------|
--------------------|--3----------------|--------------------|
--------------------|-------------------|--------------------|
--3-----------------|-------------------|--------------------|


                                                             
-------------------|--0------0----------|-------------------|
--3----------------|--------------------|--3----------------|
-------------------|--------------------|-------------------|
-------------------|--------------------|-------------------|


                                                                
-------------------|------------------|------------------|----||
-------------------|------------------|------------------|----||
-------------------|------------------|------------------|----||
--3----------------|------------------|------------------|----|

акорди за китара

акорди за пиано

видео клип


© 2007-2017 akordite.com - Акорди и таблатури на български песни

Вход






Забравена парола
Нямате достъп?
Регистрирайте се!!!

Последни песни



Статистика

Песни: 1411
Потребители: 12640

В момента онлайн:

5 госта и 1 потребител
  • Jon Lord