[Всички песни]
[Скрий Акордите]
[Редактирай песента]

Печат
Гама
Am : Em : Bm : F#m : C#m : G#m : D#m : A#m : Dm : Gm : Dm : Fm : Bbm : Ebm : Abm

Не сме светци


Изпълнител: Аксиния, Борис Солтарийски и Ку-ку бенд

Изпратил: dshaprin 

Знам, че тази песен вече е качвана от rsrman, но реших да споделя с вас моя вариант.
Инто и куплети:
|----------------|------------0---|----------------|----------------|
|----3-------2h3-|----3---------2-|----2------3-0--|--------------0-|
|------4---4-----|--2---2---2-----|------2---------|----0-------2---|
|--4-------------|0-------0-------|--2------2------|------0---------|
|2-------2-------|----------------|0---------------|--2-------2-----|
|----------------|----------------|----------------|3-------3-------|

|----------------|------------0---|----------------|----------------|
|----3-------2h3-|----3---------2-|----2------3-0--|------0---------|
|------4---4-----|--2---2---2-----|------2---------|----2-----------|
|--4-------------|0-------0-------|--2------2------|----------------|
|2-------2-------|----------------|0---------------|--2-------------|
|----------------|----------------|----------------|3---------------|

  Bm                     D     A        G
И нека Бог ме съди след това, само не и ти.
    Bm              D        A       G
 Няма смисъл във една лъжа или в хиляди..
     Bm                      D
 Хвърлям прах в леда в очите ти,
     A          G
 искам да ме спреш.
    Bm          D
 Утре с теб какво ми предстои,
    A             G
 знаеш ли от днес? Не.
   G               G
 Не е вярно, че завинаги 
    Bm                Em
 продължава любовта.
     G        A
 От утре се забравяме, 
     G              F#
 закълни се във това!


 Припев:
   Bm
 Плачи със праведни сълзи,
    D
 благородно ме лъжи,
    A                            G
 аз не си признавам, но и ти не си.
       Bm
 Какви със тебе сме били 
      D
 и ти го знаеш, но мълчи.
        A                       G
 Не, не сме невинни и не сме светци.
      Bm                      D
 Не, не сме светци, не сме светци.

       Bm             D
 2. Между моите пръсти виждам как
    A             G
 се изплъзваш ти.
     Bm        D            A           G
 Връщаш ми каквото сама предложих ти, нали?
      Bm                    D       A         G
 Тръгвах бързо, но вървях назад, за да видя теб.
     Bm            D
 Свърши ли една любов така,
    A            G
 краят край не е, не.
       G          A          Bm      Em
 Не е вярно, че завинаги остава любовта.
       G        A         G             F#
 От утре се забравяме, кълни се във това!


акорди за китара

акорди за пиано

видео клип


© 2007-2017 akordite.com - Акорди и таблатури на български песни

Вход






Забравена парола
Нямате достъп?
Регистрирайте се!!!

Последни песни



Статистика

Песни: 1411
Потребители: 12552

В момента онлайн:

5 госта