[Всички песни]
[Скрий Акордите]
[Редактирай песента]

Печат
Гама
Am : Em : Bm : F#m : C#m : G#m : D#m : A#m : Dm : Gm : Dm : Fm : Bbm : Ebm : Abm

Можеш ли


Изпълнител: Акустика

Изпратил: mowerr87 

Am       C         G
Можеш ли да бъдеш друга 
Am       C         G
Блясъкът в очите ми да задържиш
Am    C          G
Денем да излизаш с други
Am                G
А ноща със мен да сполделиш
Dm                  C
Толкова мои въпроси днес
G
Трудно намират  път към тебе
Dm
Отговор в себе си носиш
C                   G
Но не стига нищо до мен

припев
Am           C  G                      Am
Можеш ли да ми кажеш не мога
Am         C   G
Можеш ли да ми кажеш недеи
Am                C   G                  Am
Само с мен ли си толкова строга
Am  C  G                 Am     G
Да ме ревнуваш само посмеи

Не разбра ли че не искам
Връзка да поддържам с теб
По телефон
Да ти кажа нещо искам
В живота ми не даваи тон
Толкова мои въпроси днес
Трудно намират  път към тебе
 Отговор в себе си носиш
Но не стига нищо до мен


Можеш ли да ми кажеш не мога
Можеш ли да ми кажеш недеи
Само с мен ли си толкова строга
Да ме ревнуваш само посмеи
F#
Трябва да спрем да помислим
C#
Има ли смисъл да продължим
B
Маи е време за сбогом 
C#
Нека си простим


intro

4--------------7-----------
3---------7-5----5-----7-5
2---4s5------------5-------
1-----------------------------

4--------------7-----------
3---------7-5----5-5-7---
2---4s5--------------------
1--------------------------


4--------------7-----------
3---------7-5----5-----7-5
2---4s5------------5--------
1---------------------------

4----7----------------------------7-5
3----------5--7-5-----------7-5------
2-----------5---------5-5-5------------
1----------------------------------------


акорди за китара

акорди за пиано

видео клип


© 2007-2017 akordite.com - Акорди и таблатури на български песни

Вход






Забравена парола
Нямате достъп?
Регистрирайте се!!!

Последни песни



Статистика

Песни: 1429
Потребители: 13013

В момента онлайн:

8 госта и 1 потребител
  • ScouseSinatra