[Всички песни]
[Скрий Акордите]
[Редактирай песента]

Печат
Гама
C : G : D : A : E : B : F# : C# : F : Bb : Eb : Ab : Db : Gb

Не се предавай


Изпълнител: Атлас
Текст: Петър Писарски
Музика: Петър Писарски
Албум: "Не се предавай" (1993)
Изпратил: ivchovarna 

Тоналност : D

интро : 

e |----------------------------------------------|
B |----------------------------------------------|
G |----------------------------------------------|
D |7-7--5-5---7-7---5-------5-7-7--5-5-----------|
A |5-5--3-3---5-5---3--3-3--3-5-5--3-3---7-7--9-9|
E |--------------------1-1---------------5-5--7-7| x1


e |---------------|
B |---------------|
G |---------------|
D |---------------|
A |7-7--9-9--10-10|
E |5-5--7-7---8--8| x2


Куплет 1 : 

e |-------------------------------|
B |-------------------------------|
G |-------------------------------|
D |-------------------------------|
A |12-12-12--10-10-10--7-7-7-9-9-9|
E |10-10-10---8--8--8--5-5-5-7-7-7| X4

бридж :

e |---------------|
B |---------------|
G |---------------|
D |---------------|
A |7-7--9-9--10-10|
E |5-5--7-7---8--8| x4

Припев :

e |-----------------------|
B |-----------------------|
G |-----------------------|
D |7---------5-5--5-------|
A |5---5-5---3-3--3--5-5-5|
E |----3-3-----------3-3-3| x4

Соло : 

e |----------------------------------------------|
B |----------------------------------------------|
G |----------------------------------------------|
D |7-7--5-5---7-7---5-------5-7-7--5-5-----------|
A |5-5--3-3---5-5---3--3-3--3-5-5--3-3---7-7--9-9|
E |--------------------1-1---------------5-5--7-7|

e |----------------------------------------------|
B |----------------------------------------------|
G |----------------------------------------------|
D |7-7--5-5---7-7---5-------5-7-7--5-5-----------|
A |5-5--3-3---5-5---3--3-3--3-5-5--3-3---7-7h----|
E |--------------------1-1---------------5-5-----|

Куплет 2 :

e |-------------------------------|
B |-------------------------------|
G |-------------------------------|
D |-------------------------------|
A |12-12-12--10-10-10--7-7-7-9-9-9|
E |10-10-10---8--8--8--5-5-5-7-7-7| x4

бридж :

e |---------------|
B |---------------|
G |---------------|
D |---------------|
A |7-7--9-9--10-10|
E |5-5--7-7---8--8| x4

Припев :

e |-----------------------|
B |-----------------------|
G |-----------------------|
D |7---------5-5--5-------|
A |5---5-5---3-3--3--5-5-5|
E |----3-3-----------3-3-3| x2

(само пиано) : Не се предавай , не се предавай 

Припев :

e |-----------------------|
B |-----------------------|
G |-----------------------|
D |7---------5-5--5-------|
A |5---5-5---3-3--3--5-5-5|
E |----3-3-----------3-3-3| x4



акорди за китара

акорди за пиано

видео клип


© 2007-2017 akordite.com - Акорди и таблатури на български песни

Вход






Забравена парола
Нямате достъп?
Регистрирайте се!!!

Последни песни



Статистика

Песни: 1411
Потребители: 12750

В момента онлайн:

8 госта и 1 потребител
  • Georgi5051