[Всички песни]
[Скрий Акордите]
[Редактирай песента]

Печат
Гама
Am : Em : Bm : F#m : C#m : G#m : D#m : A#m : Dm : Gm : Dm : Fm : Bbm : Ebm : Abm

Дъждостих


Изпълнител: БТР

Албум: 2000
Изпратил: UGLY_KID

Забележки: 
(1) Всички песни на БТР са с половин тон надолу. Техните китари са настроени на Еb, вместо на Е. 
(2) Показал съм разлагането по-долу, но ми е трудно да опиша дължините в таблатура
(3) Акордът Em9/D се свири така
     (03045х)  e)--0---
               B)--3--
               G)--0--
               D)--4--
               A)--5--
               E)------
(4) Направих и файлове за TUX и GP, вж. в съответната тема на форума.
          

Am        Asus4          C            G
  Отново сам вървя, в дъжда сълзите крия
Am          Asus4     C          G
  Падащите капки гласът ми заглушават
Em           C       Em9/D      Em   C   Em9/D
  Студен безкрай като тъга се движи
Em        C       Em9/D    Em   C   Em9/D
   Угасва огъня в сърцето ми

Мисля си за теб сега, за бързите ти стъпки
Спомням си очите ти и сълзите на раздяла
Тогава също дъжд валеше
Тогава всъщност всичко свърши

Пр.
G          D                  Em   C   Em9/D
  Няма да чакам, това ли е краят
G               D            Em   C   Em9/D
  Проклинам дъжда и всички мъгли
G          D                Em   C   Em9/D
  Очаквам есенно слънце да дойде
G              D          Em   C   Em9/D
  В което да видя твойте очи.


_____________
Разлагането е нещо подобно:

    Am              Asus4          C            G
E)---------0-------------0---------------0---------------3--------|
B)-----------1------3------3---------------1---------------0------|
G)-------2-----2-------2-----2---------------0--------0------0----|
D)-----2---------2-------------2------2---------------------------| x2
A)--0------------------------------3---------------2-----------2--|
E)----------------------------------------------3-----------------|
       От-ново     сам..


E)--------0-----------------------------|
B)----------0---------------------------|
G)------0-----0----------0---------0----|
D)---------------------2---------4------| x4
A)----2---------2----3---------5--------|
E)-0------------------------------------|
Студен безкрай като...
____


акорди за китара

акорди за пиано

видео клип


© 2007-2017 akordite.com - Акорди и таблатури на български песни

Вход






Забравена парола
Нямате достъп?
Регистрирайте се!!!

Последни песни



Статистика

Песни: 1411
Потребители: 12743

В момента онлайн:

11 госта и 2 потребителя
  • anchu_d
  • Emnima