[Всички песни]
[Скрий Акордите]
[Редактирай песента]

Печат
Гама
Am : Em : Bm : F#m : C#m : G#m : D#m : A#m : Dm : Gm : Dm : Fm : Bbm : Ebm : Abm

Нещо лично


Изпълнител: Слави Трифонов
Текст: Ивайло Вълчев
Музика: Евгени Димитров - Маестрото
Албум: Ние продължаваме 2007 г.
Изпратил: Ronnin

 Cm         G#            Eb
През ада минах, но не спрях,

        A#
а вървях и вървях.

 G#        Cm           A#                G#
Над мен летеше моя страх като гарван чер

 Fm      Cm           A#    G#
и чакаше да се предам, себе си да му дам,

 Fm      Cm         A#
защото бях един и сам.


 Cm       G#                 Eb
И беше мрак пред мен и в мен,

       A#        G#
но вървях и вървях,

         Cm         A#
а тихи мъртви гласове

     G#
викаха ме при тях.

 Fm        Cm         A#
И аз за миг си пожелах

        G#
да се спра и да заспя,

 Fm     Cm           A#
и уморен да ида във нищото...



ПРИПЕВ:

 GmCm     Eb       A#
Някога, някъде далеч...

      F
Аз не спрях и пак вървях.

 Gm  Cm       Eb         A#
Всичко все някога ще спре...

   F
Но аз не спрях!

 Cm              Gm
Срещу себе си стоях

F                    Eb
и нямах път, но не спрях, а вървях.

 Cm        Gm          F
И пак вървя, насам вървя...


        
E--------------------6-----------------------------------
B--3-4---3-4---3-4-------4------3-4-6---6-4-3------------
G-----------------------------------------------5--------
D--------------------------------------------------------
A--------------------------------------------------------
E--------------------------------------------------------

E--------------------6-----------------------------------
B--3-4---3-4---3-4-------4/6------3-4-6---6-4-3----------
G-------------------------------------------------5------
D--------------------------------------------------------
A--------------------------------------------------------
E--------------------------------------------------------

E-----3-4-3----------3-----------------------------------
B--6------------4-6-----6-----3-4-6---6-4-3--------------
G--------------------------------------------5-----------
D--------------------------------------------------------
A--------------------------------------------------------
E--------------------------------------------------------

E-----3-4-3----------3-----------------------------------
B--6------------4-6-----6--------------------------------
G--------------------------------------------------------
D--------------------------------------------------------
A--------------------------------------------------------
E--------------------------------------------------------


И по ръба на пропастта
аз вървях и вървях.
Стоях от тъмната страна
и обратно броях
години, дни и часове,
но не помнех кога
във себе си съм пуснал болката...


ПРИПЕВ:



 C#      G#
Това, което имам...

 A#m     Fm*
Това, което нямам...

 F#      C#       G#
Това, което губя аз...


 E       B
Това, което имам...

 C#m     G#m*
Това, което нямам

 A     E           B
и винаги намирам пак.


През ада минах, но не спрях,
а вървях и вървях.
Над мен летеше моя страх като гарван чер.
Следяхме се очи в очи,
но не спрях, а вървях.
Оставих го далеч от себе си...

Fm* 

e--4-- 
B--1-- 
G--1-- 
D--3-- 
A--3-- 
E--1-- 


G#m*

e--7-- 
B--4-- 
G--4-- 
D--6-- 
A--6-- 
E--4-

акорди за китара

акорди за пиано

видео клип


© 2007-2017 akordite.com - Акорди и таблатури на български песни

Вход






Забравена парола
Нямате достъп?
Регистрирайте се!!!

Последни песни



Статистика

Песни: 1411
Потребители: 12816

В момента онлайн:

1 гост