[Всички песни]
[Скрий Акордите]
[Редактирай песента]

Печат
Гама
C : G : D : A : E : B : F# : C# : F : Bb : Eb : Ab : Db : Gb

Малкият принц (соло)


Изпълнител: Дони и Момчил

Изпратил: Godkiller

За акордите може да погледнете версията на huku6610i, доста добре се е 
справил.

Относно солото, то е в Си Минор и като се изключи времевата сигнатура, 
е 100% правилно. Където вместо прагче пише "L", това е лигатура -
продължава се нотата от предишния такт.

Много приятно и лесно соло, хеф фън!

     Q    E  E  H           Q    Q    Q    Q     
E||----------------------|----------------------|
B||----------------------|-----------------8----|
G||--9----6--7--9--------|--6----7----9---------|
D||----------------------|----------------------|
A||----------------------|----------------------|
E||----------------------|----------------------|


  H        H           H         E   E   E   E   
--------------------|-----------14--17--14------|
--L--------7--------|--L--------------------17--|
--------------------|---------------------------|
--------------------|---------------------------|
--------------------|---------------------------|
--------------------|---------------------------|


   E   E   H         Q        Q     Q     H         
--------------------------|--------------15--------|
--14----------------14----|--15----17--------------|
------16--14--------------|------------------------|
--------------------------|------------------------|
--------------------------|------------------------|
--------------------------|------------------------|


   Q     H.               E   E   H         E   E   
---L----14------------|----------------------------|
----------------------|------14--15--------17--15--|
----------------------|--16------------------------|
----------------------|----------------------------|
----------------------|----------------------------|
----------------------|----------------------------|


   H         H            Q     H         E   E   
----------------------|--------------------------|
--14------------------|--------------------------|
------------16--------|--14----14------------14--|
----------------------|------------------16------|
----------------------|--------------------------|
----------------------|--------------------------|


   H         E   E   Q        Q     Q     H         
--------------------------|------------------------|
----------------14--15----|--14--------------------|
--16--------16------------|--------16----16--------|
--------------------------|------------------------|
--------------------------|------------------------|
--------------------------|------------------------|


   H         H               Q     E   E   Q     Q     
----------------------|-------------------------------|
--14------------------|--14h15----14------14----------|
------------16--------|---------------16--------14----|
----------------------|-------------------------------|
----------------------|-------------------------------|
----------------------|-------------------------------|


  Q     H         Q        Q     E   E   Q     Q     
-----------------------|----------------------------|
-----------------------|----------------------------|
--L--------------------|----------------------14----|
-------16--------14----|------------14--16----------|
-----------------------|--17----17------------------|
-----------------------|----------------------------|


   H         Q     E   E   Q        H         H         
--------------------------------|----------------------|
------------15----14------14----|--14------------------|
---L------------------16--------|------------16--------|
--------------------------------|----------------------|
--------------------------------|----------------------|
--------------------------------|----------------------|


   Q     H.               W                 
----------------------|--------------------|
----------------------|--------------------|
--14----14------------|--------------------|
----------------------|--16----------------|
----------------------|--------------------|
----------------------|--------------------|


   E   E   H         E   E      H         H         
----------------------------|----------------------|
------14--15--------17--15--|--14------------------|
--16------------------------|------------16--------|
----------------------------|----------------------|
----------------------------|----------------------|
----------------------------|----------------------|


   Q     H         E   E      W                    Q     
--------------------------|--------------------12h14----|
--------------------------|-----------------------------|
--14----14------------14--|--16-------------------------|
------------------16------|-----------------------------|
--------------------------|-----------------------------|
--------------------------|-----------------------------|


   E   E   E   E   H            H.            Q     
--14--12--------------------|----------------------|
----------15--14--12--------|--11------------12----|
----------------------------|----------------------|
----------------------------|----------------------|
----------------------------|----------------------|
----------------------------|----------------------|


  Q     Q     H           H.           Q      
-----------------------|--------------------||
--L--------------------|--------------------||
-------11--------------|--------------------||
-----------------------|--------------------||
-------------14--------|--L-----------\2----||
-----------------------|--------------------||


акорди за китара

акорди за пиано

видео клип


© 2007-2017 akordite.com - Акорди и таблатури на български песни

Вход






Забравена парола
Нямате достъп?
Регистрирайте се!!!

Последни песни



Статистика

Песни: 1411
Потребители: 12531

В момента онлайн:

6 госта и 1 потребител
  • Jon Lord