[Всички песни]
[Скрий Акордите]
[Редактирай песента]

Печат
Гама
Am : Em : Bm : F#m : C#m : G#m : D#m : A#m : Dm : Gm : Dm : Fm : Bbm : Ebm : Abm

Не мога да спра да те обичам


Изпълнител: Некролог

Изпратил: mart


--------0---------------0--------------1--------------0--------------0--------
------1---1---1-------1---1---1------1---1---1------0---0---0------0---0---0--
----2-------2------2--------2------2-------2------1-------1------1-------1----
--------------------------------3------------------------------2--------------
-0---------------2------------------------------2-----------------------------
------------------------------------------------------------------------------
x6

---3----3----3---3---0---1--1--1--1--1--1---
---5----5----5---5---0---1--1--1--1--1--1---
---5----5----5---5---0---2--2--2--1--1--1---
---5----5----5---5---0---3--3--3--3--3--3---
-3----2----1---0---------3--3--3--3--3--3---
--------------------------------------------
x3

---3---3----1------
---5---5----1------
---5---5-----------
---5---5-----------
-3---2---1---------
------------1------



--------0---------------0--------------1--------------0--------------0--------
------1---1---1-------1---1---1------1---1---1------0---0---0------0---0---0--
----2-------2------2--------2------2-------2------1-------1------1-------1----
--------------------------------3------------------------------2--------------
-0---------------2------------------------------2-----------------------------
------------------------------------------------------------------------------
x6

---3----3----3---3---0---1--1--1--1--1--1---
---5----5----5---5---0---1--1--1--1--1--1---
---5----5----5---5---0---2--2--2--1--1--1---
---5----5----5---5---0---3--3--3--3--3--3---
-3----2----1---0---------3--3--3--3--3--3---
--------------------------------------------
x3

---3---3----1------
---5---5----1------
---5---5-----------
---5---5-----------
-3---2---1---------
------------1------


A C F G /4

солo: A C F G /4

A C F G /4


C B C B 
C B C B  
F E F E 
C B C B 
x2

A


---3----3----3---3---0---1--1--1--1--1--1---
---5----5----5---5---0---1--1--1--1--1--1---
---5----5----5---5---0---2--2--2--1--1--1---
---5----5----5---5---0---3--3--3--3--3--3---
-3----2----1---0---------3--3--3--3--3--3---
--------------------------------------------
x3

---3---3--------1-------1-------1-------------------
---5---5----------1-------1-------1------1----------
---5---5------------2-------2-------2-----2---------
---5---5----3--3-------1----------------------------
-3---2---1---------------------4-------1------------
---------------------------------------------4-3--1-



акорди за китара

акорди за пиано

видео клип


© 2007-2017 akordite.com - Акорди и таблатури на български песни

Вход






Забравена парола
Нямате достъп?
Регистрирайте се!!!

Последни песни



Статистика

Песни: 1411
Потребители: 12742

В момента онлайн:

10 госта и 1 потребител
  • Balkana