[Всички песни]
[Скрий Акордите]
[Редактирай песента]

Печат
Гама
C : G : D : A : E : B : F# : C# : F : Bb : Eb : Ab : Db : Gb

Нека Бъде Лято 2010


Изпълнител: Лора & Goodslav

Изпратил: Smoochy

Това са трите акорда дето се повтарят през цялата песен:


e-|----6---------6--------4--------|
B-|----7---------6--------4--------|
G-|----8---------6--------4--------|
D-|----8---------8--------6--------|
A-|----6---------8--------6--------|
E-|----6---------6--------4--------|

Вие си нагласете темпото като при връщането от 3-я акорд на 1-я има плъзгане! 

Това е риф-чето дето се чува на фона:

e-|------------------------------------------9-----------------------------
B-|------7—9/11---9--7--9-------7—9/11--11-------9-------------------------
G-|----8---------------------8---------------------------------------------
D-|------------------------------------------------------------------------
A-|------------------------------------------------------------------------
E-|------------------------------------------------------------------------

e-|------------------------------------------11---9------------------------
B-|------7—9/11---9--7--9-------7—9/11--11---------------------------------
G-|----8---------------------8---------------------------------------------
D-|------------------------------------------------------------------------
A-|------------------------------------------------------------------------
E-|------------------------------------------------------------------------

Акордите звучат добре и така

e-|----6---------6--------4--------|
B-|----7---------6--------4--------|
G-|----6---------6--------4--------|
D-|----8---------6--------4--------|
A-|----6---------8--------6--------|
E-|----6---------6--------4--------|


акорди за китара

акорди за пиано

видео клип


© 2007-2017 akordite.com - Акорди и таблатури на български песни

Вход






Забравена парола
Нямате достъп?
Регистрирайте се!!!

Последни песни



Статистика

Песни: 1411
Потребители: 12742

В момента онлайн:

9 госта и 1 потребител
  • Balkana