[Всички песни]
[Скрий Акордите]
[Редактирай песента]

Печат
Гама
C : G : D : A : E : B : F# : C# : F : Bb : Eb : Ab : Db : Gb

Конникът


Изпълнител: Щурците

Албум: Конникът
Изпратил: mart

A5 (B C D C# C B Bb A)  A5 (G F E F F# G G# A) /2
 
A                              D  C   
--------------------------------------
------------3-2-1-0---------1--7--5---
--------0-2---------0---0-2----7--5---
------2---------------2--------7--5---
-7-7--------5-4-3-2-------0-3--5--3---
-5-5--0-3-5---------3-0-3-------------

     D   E  F  G   A  G   F  G   E 
--------------------------------------
-----7-7-9----------------------------
-----7-7-9--2-2-4--5-5-4--2-2-4--1----
-----7-7-9--3-3-5--7-7-5--3-3-5--2----
-----5-5-7--3-3-5--7-7-5--3-3-5--2----
------------1-1-3--5-5-3--1-1-3--0----

E                              A  G   
--------0--5-4-3-2----------3--5--3---
----0-3------------3----3-5-----------
-1---------2-1-0------4-----0---------
-2----0-2--------4------0-2-----------
-2--2--------------5--2--------7--5---
-0-----------------------------5--3---

     B   C#  D  D#  E  F#  G  G#  A   
--------------------------------------
-----4-4-6---7-7-8--9-9---------------
-----4-4-6---7-7-8--9-9-3--4-4-5--6---
-----4-4-6---7-7-8--9-9-4--5-5-6--7---
-----2-2-4---5-5-6--7-7-4--5-5-6--7---
------------------------2--3-3-4--5---

A                              D  C   
--------------------------------------
------------3-2-1-0---------1--7--5---
-6------0-2---------0---0-2----7--5---
-7----2---------------2--------7--5---
-7----------5-4-3-2-------0-3--5--3---
-5----0-3-5---------3-0-3-------------
     
     D   E  F   G  G#  Eb F   C  D 
-----------------------3--------------
-----7-7-9-------------4------5--7----
-----7-7-9--2-2-4--5-5-3--2-2-5--7----
-----7-7-9--3-3-5--6-6-1--3-3-5--7----
-----5-5-7--3-3-5--6-6----3-3-3--5----
------------1-1-3--4-4----1-1---------

 D                            G  F   
-----------4-3-2-1---------2--3--1----
-7----2-4----------2---2-4------------
-7--3----------------3----------------
-7---------6-5-4-3---------4----------
-5----4-6----------4---4-6----5--3----
----6----------------6--------3--1----

 A                 B
------3---3---5---------5---5---7-----
--------5---3-------------7---5-------
--------------------------------------
-2-2---------------4-4----------------
-0-0---------------2-2----------------
--------------------------------------

 E   G  E  A  E   G    G         A  /3
--------------------------------------
-----8-----10-----8-------------------
-----7-----9------7----4--4--(4)--6---
-----5-----7------5----5--5--(5)--7---
-2------2------2-------5--5--(5)--7---
-0------0------0-------3--3--(3)--5---
x3

(A           /3     E  G   C  G   ) /2
-----5-5-5-5-5-5- --------------------
-----5-5-5-5-5-5- --------------------
-----7-7-7-7-7-7- ---------5----------
----------------- ---------3----------
-7-7------------- --2---5------5------
-5-5------------- --0---3------3------

A5              A5
1.Кой препуска диво в нощта, кой ли
D5                     D5
слял се с коня си в безумен устрем,
      B5 C5            C5
сякаш гони края на света
         D5    A5 E5    A5 E5   A5 E5   F5 G5
свил до болка немите си устни?

A5
2.Чуй камшика тънко как свисти, чуй го
D5
и разсича с ярост тишината
     B5 C5 B5 C5   B5 C5  D5
Коннико, какво ли търсиш ти,
      A5 E5    A5 E5    A5 E5    B5 D5
че летиш към края на земята?

Припев:
Em            D  
Няма да се спреш за миг едва,
 C                      Em
няма към какво да се завръщаш.
  D                    G
- Устремът е моята съдба,
 A                     B
рискът е печалната ми същност.

A5  (E5 G5 G#5) A5    E5 G5 C5 G5  /2

3.Хората в спокойни нощи спят, йе
в тихите си сънища завити.
Мен ме гони лудият ми път
през нощта нагоре към звездите.

4.Хората... не бягам аз от тях, зная...
Зная - просто вече нямам време
нерви, думи, помисли и страх -
аз от тях изплетох своето стреме.

Припев:
И летя към моя хоризонт
и летя през кулите от пясък.
 D                      A  B  
Миналото си смених със кон
C        D        E
и за мен избора е ясен.    

A                              D  C   
--------------------------------------
------------3-2-1-0---------1--7--5---
--------0-2---------0---0-2----7--5---
------2---------------2--------7--5---
-7-7--------5-4-3-2-------0-3--5--3---
-5-5--0-3-5---------3-0-3-------------

     D   E  F  G   A  G   F  G   E 
--------------------------------------
-----7-7-9----------------------------
-----7-7-9--2-2-4--5-5-4--2-2-4--1----
-----7-7-9--3-3-5--7-7-5--3-3-5--2----
-----5-5-7--3-3-5--7-7-5--3-3-5--2----
------------1-1-3--5-5-3--1-1-3--0----

E                              A  G   
--------0--5-4-3-2----------3--5--3---
----0-3------------3----3-5-----------
-1---------2-1-0------4-----0---------
-2----0-2--------4------0-2-----------
-2--2--------------5--2--------7--5---
-0-----------------------------5--3---

     B   C#  D  D#  E  F#  G  G#  A   
--------------------------------------
-----4-4-6---7-7-8--9-9---------------
-----4-4-6---7-7-8--9-9-3--4-4-5--6---
-----4-4-6---7-7-8--9-9-4--5-5-6--7---
-----2-2-4---5-5-6--7-7-4--5-5-6--7---
------------------------2--3-3-4--5---

A                              D  C   
--------------------------------------
------------3-2-1-0---------1--7--5---
-6------0-2---------0---0-2----7--5---
-7----2---------------2--------7--5---
-7----------5-4-3-2-------0-3--5--3---
-5----0-3-5---------3-0-3-------------
     
     D   E  F   G  G#  Eb F   C  D 
-----------------------3--------------
-----7-7-9-------------4------5--7----
-----7-7-9--2-2-4--5-5-3--2-2-5--7----
-----7-7-9--3-3-5--6-6-1--3-3-5--7----
-----5-5-7--3-3-5--6-6----3-3-3--5----
------------1-1-3--4-4----1-1---------

 D                            G  F   
-----------4-3-2-1---------2--3--1----
-7----2-4----------2---2-4------------
-7--3----------------3----------------
-7---------6-5-4-3---------4----------
-5----4-6----------4---4-6----5--3----
----6----------------6--------3--1----

 A                
------3---3---5---------3---3---5-----
--------5---3-------------5---3-------
--------------------------------------
-2-2---------------2-2----------------
-0-0---------------0-0----------------
--------------------------------------

/соло/
D      E F     G A       B C     D


 E   G  E  A   E  G    G        A   /2
-----12----12-----12---3--3-(3)-5------
---------------------------------------
---------------------------------------
---------------------------------------
-2------2------2-----------------------
-0------0------0-----------------------
x2

A5 A5   A5 A5    E5 G5 C5 G5  /2

5.Аз препускам диво в нощта,
слял се с коня си в безумен устрем,
сякаш гоня края на света
свил до болка немите си устни?

6.Хората... не бягам аз от тях, зная...
Зная - просто вече нямам време
нерви, думи, помисли и страх -
      A5 E5    A5 E5    A5 E5    B5 F#5
аз от тях изплетох своето стреме.

Припев:
Bm                A
И летя към моя хоризонт
G                     Bm
и летя през кулите от пясък. 
 A                      E  D5 C#5
Миналото си смених със кон
B5    A5  G5   E5   F#5
и за мене изборът е ясен. Хей!

B5 
(Кой препуска диво в нощта, йе!)
             G5 A5      D5 A5
Аз препускам диво в нощта!

(Кой препуска диво в нощта, йе!)
Аз препускам диво в нощта!

(Кой препуска диво в нощта, йе!)
Защо ли ,защо ли препускам в нощта!

(Кой препуска диво в нощта, йе!)
Уху.. ху...

 G5 A5   D5  A5 /4  

акорди за китара

акорди за пиано

видео клип


© 2007-2017 akordite.com - Акорди и таблатури на български песни

Вход






Забравена парола
Нямате достъп?
Регистрирайте се!!!

Последни песни



Статистика

Песни: 1429
Потребители: 12940

В момента онлайн:

5 госта и 1 потребител
  • agresor41