[Всички песни]
[Скрий Акордите]
[Редактирай песента]

Печат
Гама
C : G : D : A : E : B : F# : C# : F : Bb : Eb : Ab : Db : Gb

Мускетарски марш


Изпълнител: Щурците
Текст: Георги Рубчев
Музика: Кирил Маричков
Албум: Мускетарски марш
Изпратил: mart

E     (G) D     (E) A      B /2

E                G5 D          E
1.Къде си тръгнал, дърти Дартаняне,
       A          G         C     Dsus4 D
с дръгливата си кранта де отиваш.
E            G D              E
А мускетарят, казваш, че призван е
      F         G           C
в несгодите да бъде смел и жилав.

--------------------
----------------0-2-
-----0-2-0--0-2-----
-2-4----------------
--------------------
--------------------            E
Препускай тогава за чест и за слава!

E     (G) D     (E) A      B /2

E           G5 D          E
2.Къде отиваш, коннико неканен,
   A            G           C    Dsus4 D
защо под твоя плащ плющи тъгата.
E                G D        E
Виж вместо конски хълбок - калник
    F           G         C
блещука под седлото на луната.

--------------------
----------------0-2-
-----0-2-0--0-2-----
-2-4----------------
--------------------
--------------------             Е G5 D  E
Препускай тогава за чест и за слава!

Припев:
A   G             A         G
До тук сме, мои стари мускетари,
A        G           A            G
в коя посока сте, че аз съм в друга.
A        G            A        G
До гуша ми дойде от шпаги и китари,
     A           G       D    A
от клетви, от гуляи и хоругви.

--------------------
--------------------
-----2-4-2--2-4-----
-4-5----------5-----
----------------7-5-
--------------------         Е
Препускай тогава за чест и за слава!

-----------
-----------
-----------
-------0---
-----------
-0-0-3-----
x2

/соло/

E   G5 D5 /3       Esus4 E /2

--------------------
----------------0-2-
-----0-2-0--0-2-----
-2-4----------------
--------------------
--------------------

--------------------
--------------------
-----2-4-2--2-4-----
-4-5----------5-----
----------------7-5-
--------------------

E   G5 D5 /3   Esus4 E

E
3.Вървяхме силни и стигнахме самотни,
   A            G           C    Dsus4 D
а пъстрите ни дрехи са раздрани.
E                  G D      E
А баш такива днес са адски модни,
      F          G         C
но скриват ли зарасналите рани?

--------------------
----------------0-2-
-----0-2-0--0-2-----
-2-4----------------
--------------------
--------------------            E          
Препускай тогава за чест и за слава!

E G5 D/E /2

E G5 D/E          E  G5 D/E
4.Е, всичко хубаво, мой Дартаняне,
E  G5 D/E     E  G5 D/E         E  G5 D/E
да се сбогуваме - какво остава?
E            G5  D         E
Красиво беше, пусто да остане,
    F         G             C
препускането ни за чест и слава
    A
Препускай тогава, препускай тогава 

--------------------
----------------0-2-
-----0-2-0--0-2-----
-2-4----------------
--------------------
--------------------        Е G5 D  E
Препускай тогава за чест и за слава!

--------------------
--------------------
-----2-4-2--2-4-----
-4-5----------5-----
----------------7-5-
--------------------            Е                  G D             E  A
Препускай тогава за чест и за слава! (Препускай, препускай тогава!)

--------------------
----------------0-2-
-----0-2-0--0-2-----
-2-4----------------
--------------------
--------------------            E G5 D  Esus4 E
Препускай тогава за чест и за слава!

--------------------
--------------------
-----2-4-2--2-4-----
-4-5----------5-----
----------------7-5-
--------------------           E                  G D            E  A
Препускай тогава - какво ти остава? (Препускай, препускай тогава!)

--------------------
----------------0-2-
-----0-2-0--0-2-----
-2-4----------------
--------------------
--------------------            Е G5 D  E    
Препускай тогава за чест и за слава!

--------------------
--------------------
-----2-4-2--2-4-----
-4-5----------5-----
----------------7-5-
--------------------         E                  G   D           E  A
Препускай тогава - какво ти остава? (Препускай, препускай тогава!

акорди за китара

акорди за пиано

видео клип


© 2007-2017 akordite.com - Акорди и таблатури на български песни

Вход






Забравена парола
Нямате достъп?
Регистрирайте се!!!

Статистика

Песни: 1446
Потребители: 13188

В момента онлайн:

4 госта и 3 потребителя
  • груйчо
  • Georgi5051
  • kokod90