[Всички песни]
[Скрий Акордите]
[Редактирай песента]

Печат
Гама
C : G : D : A : E : B : F# : C# : F : Bb : Eb : Ab : Db : Gb

Жената


Изпълнител: Хиподил

Албум: Надървени Въглища
Интро: Х2
E||-----------------------|-----------------------|  
B||-----------------------|-----------------------| 
G||--------------7--7--7--|-----------------------| 
D||--7------7----7--7--7--|--7------7----5--5--5--| 
A||--7------7----5--5--5--|--7------7----5--5--5--| 
E||--5------5-------------|--5------5----3--3--3--| 

Куплети:
|-------------------------|--------------------------|
|-------------------------|--------------------------|
|-------------------------|--7--7--7--7--7--7--7--7--|
|--7----7--7--7--7--7--7--|--7--7--7--7--7--7--7--7--|
|--7----7--7--7--7--7--7--|--5--5--5--5--5--5--5--5--|
|--5----5--5--5--5--5--5--|--------------------------|

|-----------------------|-----------------------|
|-----------------------|-----------------------|
|--------------7--7--7--|-----------------------|
|--7------7----7--7--7--|--7------7----5--5--5--|
|--7------7----5--5--5--|--7------7----5--5--5--|
|--5------5-------------|--5------5----3--3--3--|

|-------------------------|--------------------------|
|-------------------------|--------------------------|
|-------------------------|--------------------------|
|--7----7--7--7--7--7--7--|--5--5--5--5--5--5--5--5--|
|--7----7--7--7--7--7--7--|--5--5--5--5--5--5--5--5--|
|--5----5--5--5--5--5--5--|--3--3--3--3--3--3--3--3--|

|-----------------------|-----------------------|
|-----------------------|-----------------------|
|--------------7--7--7--|-----------------------|
|--7------7----7--7--7--|--7------7----5--5--5--|
|--7------7----5--5--5--|--7------7----5--5--5--|
|--5------5-------------|--5------5----3--3--3--|

Жената, която....
|----------------------|-----------------------------|
|----------------------|-----------------------------|
|--5--5--2----5--5--7--|--7--7--7--7--7--7--7--7--9--|
|--5--5--2----5--5--7--|--7--7--7--7--7--7--7--7--9--|
|--3--3--0----3--3--5--|--5--5--5--5--5--5--5--5--7--|
|----------------------|-----------------------------|

Соло: Х2
|------------------------------|-------------------------------|
|--10---10--9--10--9--10--12---|--10--9--10--9--10--12---------|
|------------------------------|--------------------------9----|
|------------------------------|-------------------------------|
|------------------------------|-------------------------------|
|------------------------------|-------------------------------|

или 
|-------------------------|---------------------------|
|-------------------------|---------------------------|
|-------------------------|---------------------------|
|--7---7--6--7--6--7--9---|--7--6--7--6--7--9---------|
|-------------------------|----------------------7----|
|-------------------------|---------------------------|

или това, а солото с уста :) (ля ля ляя....)
|--------------------------|--------------------------|
|--------------------------|--------------------------|
|--7--7--7--7--7--7--7--7--|--------------------------|
|--7--7--7--7--7--7--7--7--|--7--7--7--7--7--7--7--7--|
|--5--5--5--5--5--5--5--5--|--7--7--7--7--7--7--7--7--|
|--------------------------|--5--5--5--5--5--5--5--5--|



Текст:

Жената, без която няма рай,
жената, по-красива и от най,
жената, която знае само - дай.

Жената със голямо главно "Ж"
жената, на която не държа
жената, която е притурка към мъжа 

Соло

жената, която е притурка към мъжа 

Жената, за която съм мечтал
жената, под която съм лежал
жената, на която дори Адам
не е издържал.

Жената, на която Бог е дал - какво?
Жената, над която бих умрял - защо?
Не бих умрял, не бих умрял,
за някаква си глупава жена.

Интро Х2
Куплет
Интро Х2
Куплет
Интро Х2
Соло Х2
Куплет (само края "жената, която е притурка към мъжа")
Интро Х2
Куплет
Интро Х2
Куплет
Интро ... 

Приятно Свирене!

Качил Dr-N

акорди за китара

акорди за пиано

видео клип


© 2007-2017 akordite.com - Акорди и таблатури на български песни

Вход






Забравена парола
Нямате достъп?
Регистрирайте се!!!

Последни песни



Статистика

Песни: 1411
Потребители: 12640

В момента онлайн:

3 госта