[Всички песни]
[Скрий Акордите]
[Редактирай песента]

Печат
Гама
C : G : D : A : E : B : F# : C# : F : Bb : Eb : Ab : Db : Gb

Луди глави


Изпълнител: Георги Минчев
Текст: Георги Минчев
Музика: Валди Тотев
Албум: Рокендрол ветерани
Изпратил: mart

------------
------------
------------
------------
-5----2-----
---5----3-5-
x2

C  G  Am  F G /2

C        G             Am   F  G
1.Преди години бяхме млади.
C       G        Am          F G
Сега не сме, но карай да върви.
C        G         Am     F     G C  G  Am  F G
Нали не чакаме награди - луди глави.

2.Преди години бяхме смели.
Сега не сме, но карай да върви.
Нали все пак сме оцелели - луди глави.

Припев:
F        C      Ab     C
Преди години, много години. 
F        C      Ab       C
Не зная колко, сигурно сто.
F        C      Ab     C
Преди години, много години.
    Db      Ab       B      F#
Добре си живеехме, свирехме пеехме, 
    A       E        F# Ab C
не питахме никога "Защо?".

3.Защо годините минават?
Защо животът към край върви?
Защо главите побеляват - луди глави.

/соло/  
D       A     Bm G A  D      A      Bm       G  A
-10-10-10-------------10-10--12-----14-15-17--------------
-----------10-10\3--------------10-----------15-----------
----------------------------------------------------------
----------------------------------------------------------
----------------------------------------------------------
----------------------------------------------------------

D       A     Bm     G A  D      A        Bm       G  A
-10-10-10------------------17----17----17-17-15-14-12-17--
-----------10-10\3---3-3------15----15--------------------
----------------------------------------------------------
----------------------------------------------------------
----------------------------------------------------------
----------------------------------------------------------

Припев:
Преди години, много години. 
Не зная колко, сигурно сто.
Преди години, много години.
Добре си живеехме, свирехме пеехме, 
    A       E        F# Ab
не питахме никога "Защо?".

Db        Ab       Cm   F#  Ab
4.Защо годините минават?
Db      Ab         Cm     F#  Ab
Защо животът към край върви?
Db       Ab       Cm      F#    Ab
Защо главите побеляват - луди глави.

Eb        Bb Cm      G#  Bb
----11-13---------------------
-11-------11-13---------------
----------------12-14---------
----------------------13-15---
------------------------------
------------------------------

Луди глави

Eb        Bb Cm      G#  Bb
----11-13---------------------
-11-------11-13---------------
----------------12-14---------
----------------------13\-----
------------------------------
------------------------------

Луди глави

Eb        Bb Cm          G#  Bb
----11-13----------------------
-11-------11-13----------------
----------------12-13-15-------
-------------------------13-15-
-------------------------------
------------------------------

акорди за китара

акорди за пиано

© 2007-2017 akordite.com - Акорди и таблатури на български песни

Вход






Забравена парола
Нямате достъп?
Регистрирайте се!!!

Статистика

Песни: 1490
Потребители: 13590

В момента онлайн:

7 госта и 2 потребителя
  • djtntm
  • granchovski