[Всички песни]
[Скрий Акордите]
[Редактирай песента]

Печат
Гама
Am : Em : Bm : F#m : C#m : G#m : D#m : A#m : Dm : Gm : Dm : Fm : Bbm : Ebm : Abm

Две, три, четири


Изпълнител: Тони Стораро

Изпратил: digan
Изпратил соло: Backo1


e||8---8---6---6---8--|-8------13---13----|-------------------|
B||--6---6---7---7---9|---9-14---14-------|-------------------|
G||-------------------|-------------------|-------------------|
D||-------------------|-------------------|-------------------|
A||-------------------|-------------------|-------------------|
E||-------------------|-------------------|-------------------|

e||8---8---6---6---8--|-8---6-------------|-------------------|
B||--6---6---7---7---9|---9---------------|-------------------|
G||-------------------|-------------------|-------------------|
D||-------------------|-------------------|-------------------|
A||-------------------|-------------------|-------------------|
E||-------------------|-------------------|-------------------|

e||-------------------|-------------------|-------------------|
B||-------------------|-------6---6-------|-------------------|
G||5---5---3---3---5--|-5---6---6---------|-------------------|
D||--3---3---4---4---6|---6---------------|-------------------|
A||-------------------|-------------------|-------------------|
E||-------------------|-------------------|-------------------|

e||-------------------|-------------------|-------------------|
B||-------------------|-------------------|-------------------|
G||5---5---3---3---5--|-5---3-------------|-------------------|
D||--3---3---4---4---6|---6---------------|-------------------|
A||-------------------|-------------------|-------------------|
E||-------------------|-------------------|-------------------|


Fm/F#/G#/A#m

Виж я само как ме гледа
Не издържам нека спре
Как ми бърка в сърцето
От това ми сатава зле
Виж я само как се движи
Всичко мъжко разболя
Питам се какво си мисли 
И какво ще иска тя

пр.
Ще иска две три четири
Нощи да не спим
Ще трябва две три четири 
Пози да сменим
Ще вземе две три четири
Рани от любов
Ще казва две три четири
И така до сто.

Виж я само как ме кара
да пропадам без да спра
някой дявол я докара
да ми вземе любовта

Виж я само как целува
прави разни чудеса
знаеш ли какво ми струва
и какво ще иска тя.

пр.
Ще иска две три четири
Нощи да не спим
Ще трябва две три четири 
Пози да сменим
Ще вземе две три четири
Рани от любов
Ще казва две три четири
И така до сто.

Виж я само как ме гледа
не издържам нека спре,
как ми бърка в сърцето 
от това ми става зле.

Виж я само как се движи
всичко мъжко разболя
питам се какво си мисли
и какво ще иска тя.

пр:----------//------------








акорди за китара

акорди за пиано

видео клип


© 2007-2017 akordite.com - Акорди и таблатури на български песни

Вход






Забравена парола
Нямате достъп?
Регистрирайте се!!!

Последни песни



Статистика

Песни: 1411
Потребители: 12623

В момента онлайн:

8 госта и 1 потребител
  • vladicheto