[Всички песни]
[Скрий Акордите]
[Редактирай песента]

Печат
Гама
C : G : D : A : E : B : F# : C# : F : Bb : Eb : Ab : Db : Gb

Въртианален Секс


Изпълнител: Хиподил

Албум: Надървени Въглища
Изпратил: Dr NO

Ами не ми е много известно с правилата как се записват частите на песента но аз ще ги наричам така:

Интро:
E||---------------------------|--------------------------|--------------------------|---------------------------||
B||---------------------------|--------------------------|--------------------------|---------------------------||
G||---------------------------|--------------------------|--------------------3--3--|---------------------------||
D||---------5--5--------5--5--|--------------3--3--5--5--|--------3--3--------------|---------------------------||
A||---3--3--------3--3--------|--3--3--6--6--------------|--1--1--------1--1--------|--------6--6--------5--6---||
E||---------------------------|--------------------------|--------------------------|--4--4--------3--3---------||

Куплет(част 1):
E||-------------------------|-----------------------|------------------------|--------------------------|
B||-------------------------|-----------------------|------------------------|--------------------------|
G||-------------------------|----------------3------|------------------------|--------------------------|
D||---5----5--3--5----5--3--|--5--5--3--5-----------|--3----3--1--3----3--3--|--1--1--1--0----1--0------|
A||-------------------------|-----------------------|------------------------|----------------------3---|
E||-------------------------|-----------------------|------------------------|--------------------------|

Куплет(част 2):
|----x---8---x---8---x---8---x---8--|---x---8---x---8---x---8---x---8--|
|----x---8---x---8---x---8---x---8--|---x---8---x---8---x---8---x---8--|
|----x---9---x---9---x---9---x---9--|---x---9---x---9---x---9---x---9--|
|----x--10---x--10---x--10---x--10--|---x--10---x--10---x--10---x--10--|
|-----------------------------------|----------------------------------|
|-----------------------------------|----------------------------------|

|--x--6--x--6--x--6--x--6--|--x--4--x--4--x--3--x--3---||
|--x--6--x--6--x--6--x--6--|--x--4--x--4--x--3--x--3---||
|--x--7--x--7--x--7--x--7--|--x--5--x--5--x--4--x--4---||
|--x--8--x--8--x--8--x--8--|--x--6--x--6--x--5--x--5---||
|--------------------------|---------------------------||
|--------------------------|---------------------------||


Подредбата им в песента е следната:

Интро - (х2)
Куплет(част 1) - (х2)  Тук се пее
Куплет(част 2) - (х2)  Тук се пее
Интро - (х2)
Куплет(част 1) - (х2)  Тук се пее
Куплет(част 2) - (х2)  Тук се пее
Куплет(част 1) - (х2)  (Нещо като соло)
Интро - (х2)
Куплет(част 1) - (х2)  (Нещо като соло)
Куплет(част 1) - (х2) заедно с втора китара която свири Куплет(част 2) - (х2)

Бас китарата върти през абсолютно цялата песен Интро-то


Приятно свирене :)   Dr-NO (Иван)


акорди за китара

акорди за пиано

© 2007-2017 akordite.com - Акорди и таблатури на български песни

Вход






Забравена парола
Нямате достъп?
Регистрирайте се!!!

Статистика

Песни: 1446
Потребители: 13311

В момента онлайн:

8 госта и 1 потребител
  • nesheff