[Всички песни]
[Скрий Акордите]
[Редактирай песента]

Печат
Гама
C : G : D : A : E : B : F# : C# : F : Bb : Eb : Ab : Db : Gb

Вятър ечи, Балкан стене


Изпълнител: Възрожденски песни
Текст: Добри Чинтулов
Изпратил: judas_priest

Е--------------------------------------------------
B--------------------------------------------------
G-----------4--6--8--4--6--4--3--------------------
D--------------------------------------------------
A--------------------------------------------------
E--------------------------------------------------  

Е--------------------------------------------------
B--------------------------------------------------
G--3--4--6-6--8-8--6-4-3---4--6--8--4--6--4--3-----
D--------------------------------------------------
A--------------------------------------------------
E--------------------------------------------------

Е--------------------------------------------------
B--------------------------------------------------
G--3--4--6-6--8-8--6-4-3---4--6--8--4--6--4--3------
D--------------------------------------------------
A--------------------------------------------------
E--------------------------------------------------

Е--------------------------------------------------
B--------------------------------------------------
G-11-11--10--8--10--8--6--4--3---4--6--8--4--6--4--3
D--------------------------------------------------
A--------------------------------------------------
E--------------------------------------------------

Е--------------------------------------------------
B--------------------------------------------------
G-11-11--10--8--10--8--6--4--3---4--6--8--4--6--4--3
D--------------------------------------------------
A--------------------------------------------------
E--------------------------------------------------

Е--------------------------------------------------
B--------------------------------------------------
G--0--2--0----0--2--4---0--2--0----0--2--4---------
D-----------2--------------------2-----------------
A--------------------------------------------------
E--------------------------------------------------

Е--------------------------------------------------
B--------------------------------------------------
G-11-11--10--8--10--8--6--4--3---4--6--8--4--6--4--3
D--------------------------------------------------
A--------------------------------------------------
E--------------------------------------------------

Е--------------------------------------------------
B--------------------------------------------------
G-11-11--10--8--10--8--6--4--3---4--6--8--4--6--4--3
D--------------------------------------------------
A--------------------------------------------------
E--------------------------------------------------


Е--------------------------------------------------
B--------------------------------------------------
G--3--4--6-6--8-8--6-4-3---4--6--8--4--6--4--3-----
D--------------------------------------------------
A--------------------------------------------------
E--------------------------------------------------

Е--------------------------------------------------
B--------------------------------------------------
G--3--4--6-6--8-8--6-4-3---4--6--8--4--6--4--3------
D--------------------------------------------------
A--------------------------------------------------
E--------------------------------------------------

Е--------------------------------------------------
B--------------------------------------------------
G-11-11--10--8--10--8--6--4--3---4--6--8--4--6--4--3
D--------------------------------------------------
A--------------------------------------------------
E--------------------------------------------------

Е--------------------------------------------------
B--------------------------------------------------
G-11-11--10--8--10--8--6--4--3---4--6--8--4--6--4--3
D--------------------------------------------------
A--------------------------------------------------
E--------------------------------------------------

Е--------------------------------------------------
B--------------------------------------------------
G--0--2--0----0--2--4---0--2--0----0--2--4---------
D-----------2--------------------2-----------------
A--------------------------------------------------
E--------------------------------------------------

Е--------------------------------------------------
B--------------------------------------------------
G-11-11--10--8--10--8--6--4--3---4--6--8--4--6--4--3
D--------------------------------------------------
A--------------------------------------------------
E--------------------------------------------------

Е--------------------------------------------------
B--------------------------------------------------
G-11-11--10--8--10--8--6--4--3---4--6--8--4--6--4--3
D--------------------------------------------------
A--------------------------------------------------

Вятър ечи, Балкан стене,
сам юнак на коня
с тръба зове свойте братя:
всички на оръжие!

Дойде време, ставайте,
от сън се събуждайте,
доста робство и тиранство,
всички на оръжие!

Който носи мъжко сърце
и българско име,
да препаше тънка сабя,
знаме да развие!
                             




акорди за китара

акорди за пиано

видео клип


© 2007-2017 akordite.com - Акорди и таблатури на български песни

Вход






Забравена парола
Нямате достъп?
Регистрирайте се!!!

Статистика

Песни: 1446
Потребители: 13179

В момента онлайн:

1 гост