[Всички песни]
[Скрий Акордите]
[Редактирай песента]

Печат
Гама
C : G : D : A : E : B : F# : C# : F : Bb : Eb : Ab : Db : Gb

Ванилия


Изпълнител: Графа
Текст: Графа
Музика: Графа
Албум: Честно в очи
Изпратил: solstis

интродукция
| Emaj7 | Amaj7 | F#m7 | H |
| Emaj7 | Amaj7 | F#m7 | H |
| Emaj7 | Amaj7 | F#m7 - Ab7/5+ | C#m7 |

куплет

| C#m7 | F#m7 - F#m7/E (bass) | Ebm7/5- - Ab7 |
| C#m7 | F#m7 - F#m7/E (bass) | Ebm7/5- - Ab7 ...

припев

| Emaj7 | Amaj7 | F#m7 | H |
| Emaj7 | Amaj7 | F#m7 | H |
| Emaj7 | Amaj7 | F#m7 | H |
| Emaj7 | Amaj7 | F#m7 - Ab7/5+ |

последен акорд - C#m7


Колко объркани бяхме със теб,
наивни, крехки като захарен памук -
бавно топи се във чашата лед,
криви сенки играят край мен.

Припев:
Няма как да забравя всички казани думи,
но как да забравя всички слънчеви сутрини?!
Как да забравя всички изминали месеци,
как да забравя дъхът на ванилия с бяло лице?

Колко наивни бяхме със теб,
чупливи, леки като тих китарен звук.
Отдавна стопи се последния лед,
не виждам никой и нищо във мен.

Припев: (х2)
Няма как да забравя всички казани думи,
но как да забравя всички слънчеви сутрини?!
Как да забравя всички изминали месеци,
как да забравя дъхът на ванилия с бяло лицe


не смятам че е нужно да си играя да нагаждам хармонията към текста
всички имате слух, използвайте го

*************************
Изпратил: t1ger06 


1/ настрой си китарата с -(минус) 1 и 1/2 стъпки начи вместо EADGBE, 
струните трябва да бъдат нещо от сорта на C#,F#,B,E,G#,C#
2/ пробвай следното:
Код: :


 
C#|------2/3-------7/5-|-------3/2-------------|
G#|--------------------|------------5/3--------|
E |----4---------5-----|-----5-----------2/4---|
B |---5---------5------|---7-------------------|
F#|----------3---------|-----------------------|
C#|-3------------------|-5---------------------|

C#|---------0-|---------0-|-------0-----|-------0-----|-------5-----|
G#|-----------|-----------|---------1---|---------1---|-----5---5---|
E |----0-2-0--|----0-2----|-----2-----2-|-----2-----2-|---4-------4-|
B |---2-------|---2-------|---2---------|---2---------|-4-----------|
F#|-----------|-----------|-0-----------|-0-----------|-------------|
C#|-0---------|-0---------|-------------|-------------|-------------|

И след тва си продължаваш или с power акорди или с цели акорди:

C#|------------      |-3--3--5--5--
G#|------------      |-3--3--5--5--
E |----5-----7- или  |-4--5--5--7--
B |-5--5--7--7-      |-5--5--7--7--
F#|-5--3--7--5-      |-5--3--7--5--
C#|-3-----5----      |-3--x--5--x--

C dim - C Gb A Eb (II)
Ab7 - Ab Gb C E (IV

акорди за китара

акорди за пиано

видео клип


© 2007-2017 akordite.com - Акорди и таблатури на български песни

Вход






Забравена парола
Нямате достъп?
Регистрирайте се!!!

Последни песни



Статистика

Песни: 1411
Потребители: 12640

В момента онлайн:

3 госта и 1 потребител
  • Jon Lord