akordite.com - Акорди, таблатури и текстове на български песни

[Всички песни]
[Скрий Акордите]
[Редактирай песента]

Печат
Гама
C : G : D : A : E : B : F# : C# : F : Bb : Eb : Ab : Db : Gb

Клетва (соло)


Изпълнител: Щурците

Изпратил: dixy

E||----------------------------------------------------|
B||-------10--12---10~---------------------------------|
G||--/11------------------------------9--11--7s--9-----|
D||-------------------------------------------------9~-|
A||----------------------------------------------------|
Е||----------------------------------------------------|



E|---------------------------------------------------|
B|---------------------------------------------------|
G|------------------------------7~-------------------|
D|------------------------/9-------------------------|
A|-------10--9--7~-----------------------------------|
E|---------------------------------------------------|


E||-------------------------14---15---14~----------|
B||-------10--12--12S-15---------------------------|
G||--/11-------------------------------------------|
D||------------------------------------------------|
A||------------------------------------------------|
E||------------------------------------------------|

E|---17br------14---------------------------------14-15----|
B|-----------------17br----15--17------15~--------------17-|
G|---------------------------------16----------------------|
D|---------------------------------------------------------|
A|---------------------------------------------------------|
E|---------------------------------------------------------|


E||--14-------------------------------|
B||-----15-17-14-15----14-------------|
G||-----------------16----14-16-------|
D||-----------------------------16~---|
A||-----------------------------------|
E||-----------------------------------|


E|----------------------------------------12--15----13br--------13--13~|
B|-17br----15------15----18b~--------/13-------------------------------|
G|-------------16------------------------------------------------------|
D|---------------------------------------------------------------------|
A|---------------------------------------------------------------------|
E|---------------------------------------------------------------------

акорди за китара

акорди за пиано

видео клип


© 2007-2017 akordite.com - Акорди и таблатури на български песни

Вход






Забравена парола
Нямате достъп?
Регистрирайте се!!!

Статистика

Песни: 1446
Потребители: 13370

В момента онлайн:

2 госта