[Всички песни]
[Скрий Акордите]
[Редактирай песента]

Печат
Гама
Am : Em : Bm : F#m : C#m : G#m : D#m : A#m : Dm : Gm : Dm : Fm : Bbm : Ebm : Abm

Едно ченге


Изпълнител: Слави Трифонов

Изпратил: digan

   Em              G              Am
Той не беше по-различен, беше като нас
   Em      G      Am    C  D
имаше си име и живот.
   Em              G              Am
Нито дявол, нито ангел, беше като нас
C                    D           Em
малко по-добър, отколкото по-лош.

Той се смееше с нас, пиеше с нас.
Той живееше с нас и вместо нас.
А в една студена вечер тръгна вместо нас,
влезе пръв в мрака и остана сам.

Припев:
G               D
Казаха, че бил герой,
Am                 Em
че била съдбата такава.
G                 D               C
Казаха , че бил герой, в онзи миг.
G                D          Am                    Em
Казаха, че бил герой, ала друго той би ми казал:
G                       D      Am            C D      Em
"Я млъкни... Какъв герой? Аз съм ченге-едно ченге!"

Беше той един от нас никога на глас
не говореше за слава и за чест.
Но когато се наложи тръгна вместо нас
и едно ченге така липсва днес.

Припев: (х2)

Едно ченге , едно ченге, едно ченге.

solo
Изпратил: Ba3y

E----------------------------------------------0-2-3--3-2-0---/7-7-7-10--10
B---------------------3--3-3-3--1-1--3-1-----------------------------------
G--------------4--4-4--------------------4-2-------------------------------
D----5--5-4-2--------------------------------------------------------------


E--8-7-8--
B---------
G---------
D---------

E----------------10-10-12----------------------8-10-8--------------------
B-8-8-10-8---/12----------12-13-/10---8-10-12----------12-10-8-10-----12-
G--------------------------------------------------------------------------

E------------------10-8-7------------
B-10-8-10-8-7----------------10-8-7--
G--------------9-7-------------------


акорди за китара

акорди за пиано

видео клип


© 2007-2017 akordite.com - Акорди и таблатури на български песни

Вход






Забравена парола
Нямате достъп?
Регистрирайте се!!!

Последни песни



Статистика

Песни: 1411
Потребители: 12531

В момента онлайн:

6 госта и 1 потребител
  • Jon Lord