[Всички песни]
[Скрий Акордите]
[Редактирай песента]

Печат
Гама
C : G : D : A : E : B : F# : C# : F : Bb : Eb : Ab : Db : Gb

Единствени


Изпълнител: Слави Трифонов и Софи Маринова

Изпратил: citsuoca

||-------------------------------------------|
||---------6-6/8---6-----6----6--8-----------|
||--5-7-8-------------8--------------8--7--8-|
||-------------------------------------------|
||-------------------------------------------|
||-------------------------------------------|



-------------------------------------------||
---------6-6/8---6-----6----6--6-8---------||
--5-7-8-------------8---------------5------||
-------------------------------------------||
-------------------------------------------||
-------------------------------------------|

акорди за китара

акорди за пиано

видео клип


© 2007-2017 akordite.com - Акорди и таблатури на български песни

Вход






Забравена парола
Нямате достъп?
Регистрирайте се!!!

Последни песни



Статистика

Песни: 1411
Потребители: 12750

В момента онлайн:

8 госта и 1 потребител
  • Georgi5051