[Всички песни]
[Скрий Акордите]
[Редактирай песента]

Печат
Гама
C : G : D : A : E : B : F# : C# : F : Bb : Eb : Ab : Db : Gb

Бягство


Изпълнител: Авеню
Текст: Авеню
Музика: Авеню
Изпратил: Бат' Влади  (bat_vlado@yahoo.com)

intro:
 GUITAR 1:
 E----------------------------------------------------------------
 H--------3--3--5----------------3-3-5----------------------------
 G-------------------------------------------------5-4-----7------
 D--5---5----------5-7-----5---5-------5-7-------------7-5--------
 A----5----------------------3------------------------------------
 E--3---3------------------5---5----------------------------------

 GUITAR 2:                                                         Flag.
 E--------10-10-12---------------10-10-12----------8-7-----10--------(5)--
 H--8---8----------8-10----8---8----------8-10---------10-8---------------
 G----7----------------------7-------------------------------------(7)----
 D------------------------------------------------------------------------

*******************************************************************
Изпратил: Красимир Колев (RazielBG@yahoo.com)


Разложение на вече съществуващите акорди, но все пак ще ги напиша.

   G E C D
E- ----3------ ----0------ ----0------ ----2------
H- ---0----0-- ---0----0-- ---1----1-- ---3----3--
G- --0------0- --0------0- --0------0- --2------2-
D- ----------- ----------- ----------- -0---------
A- ----------- ----------- -3--------- -----------
E- -3--------- -0--------- ----------- -----------


Тези се свирят във куплетите както го има написано във файла с акордите:
G Em C G
D C
G Em C G
D C D G

G D Em C (x3)
G D G

Що се отнася до солото, то се чува лесно от песента (допълвам) :

E------3-------2-3-5-----3-5-10--8--7--5--3--2-3-0----0-------0------3--
B-----------------------------------------------------------3---3-------

-3-3---2-3-5---5~7~5--3--10--7-5-3--7-3-3---0-----5-3-2-0---0---
------------------------------------------3---3-----------3-----

-3-3-5-7--5-3----0-3------0-3-5---5-7-3-5--3----
---------------3--------3-----------------------

писал съм само двете струни, защото само те се използват.

********************************************************************
Изпратил: PxL@mail.bg

                           (solo)

solo:
E|---------------10-8-7-----------------------------------10-7------7-----------|
B|-8-7h8-10-8h10--------10-8-7h8-7---------8-8-8-7-8-10-8------10-8---8-8-------|
G|---------------------------------9-7h9-7--------------------------------7h9-7-|
D|------------------------------------------------------------------------------|
A|------------------------------------------------------------------------------|
E|------------------------------------------------------------------------------|

E|------------------------------------------------------------------------------|
B|-10-8-7-------8-8h10/12-10-8-----8-8-----8-10---10-12-8-10-8~~~------8--------|
G|--------9-7-9----------------7-9-----7-9--------------------------------------|
D|------------------------------------------------------------------------------|
A|------------------------------------------------------------------------------|
E|------------------------------------------------------------------------------|

   ...E li4no spored mene tova e soloto na Bqgstvo, kakto vijdate 
dosta po lesno i udobno se sviri na 3 a ne na 2 struni (kakto go 
vidqh post-nato v peisyrce.hit.bg) ako nqkoi ima komentari ili iska 
tabluatura moje da pi6ete na PxL@mail.bg


акорди за китара

акорди за пиано

видео клип


© 2007-2017 akordite.com - Акорди и таблатури на български песни

Вход






Забравена парола
Нямате достъп?
Регистрирайте се!!!

Последни песни



Статистика

Песни: 1411
Потребители: 12812

В момента онлайн:

13 госта