[Всички песни]
[Скрий Акордите]
[Редактирай песента]

Печат
Гама
C : G : D : A : E : B : F# : C# : F : Bb : Eb : Ab : Db : Gb

Мераци


Изпълнител: Ревю
Текст: В.Гюров
Музика: В.Гюров
Албум: РЕВЮ 88-89
Изпратил: dixy

Gtr I (E A D G) - 'Untitled'

    Q=160
   4/4
    Gtr I
    Q  Q  Q  Q  Q  Q  Q  Q   3x Q  H..      E E E H
||---------------------------||------------------------|
||o----4-----4--------------o||------------------------|
||o-2-----2--------7-----4--o||-2--5--------------4----|
||--------------5-----2------||---------------5-5------|


    E E E E  E E E E  E E E E  E E E E    3x   E E E E  E E E E  E E E E  H
||----------------------------------------||-----------------------------------|
||o--------------------------------------o||-----------------------------------|
||o-2-2-2-2--5-5-5-5--4-4-4-4------------o||---2-2-2-2--5-5-5-5--4-4-4-4-------|
||-----------------------------5-5-2-5----||------------------------------5----|


    Q  Q  Q  Q   Q  Q  Q  Q  4x
||---------------------------||
||o----4-----4--------------o||
||o-2-----2---------7-----4-o||
||---------------5-----2-----||


    Q  H..       Q.  H
||------------------------||
||o----------------------o||
||o-2--5-----------------o||
||---------------5---2----||


    Q  Q  Q  Q   Q  Q  Q  Q  4x
||---------------------------||
||o----4-----4--------------o||
||o-2-----2---------7-----4-o||
||---------------5-----2-----||


   Q   Q   Q   Q   Q   Q   Q   Q   Q   Q   Q   Q   Q   Q   Q   Q
|-------------------------------------------------------------------|
|-----12------12------12------12------12------12------12------12----|
|-10------10------10------10------10------10------10------10--------|
|-------------------------------------------------------------------|


    Q  Q  Q  Q   Q  Q  Q  Q  6x
||---------------------------||
||o----4-----4--------------o||
||o-2-----2---------7-----4-o||
||---------------5-----2-----||


   Q   Q   Q   Q    Q   Q   Q   Q    Q   Q   Q   Q    Q   Q   Q   Q
|----------------------------------------------------------------------|
|-----12------12-------12------12-------12------12-------12------12----|
|-10------10-------10------10-------10------10-------10------10--------|
|----------------------------------------------------------------------|


    Q  Q  Q  Q   Q  Q  Q  Q
||---------------------------||
||o----4-----4--------------o||
||o-2-----2---------7-----4-o||
||---------------5-----2-----||


   Q   Q   Q   Q    Q   Q   Q   Q    Q   Q   Q   Q    Q   Q   Q   Q
|----------------------------------------------------------------------|
|-----12------12-------12------12-------12------12-------12------12----|
|-10------10-------10------10-------10------10-------10------10--------|
|----------------------------------------------------------------------|


    Q  Q  Q  Q  Q   Q  Q   Q
||-----------------------------||
||o----9-----9-----11-----11--o||
||o-7-----7-----9------9------o||
||-----------------------------||


   Q   Q   Q   Q    Q   Q   Q   Q    Q   Q   Q   Q    Q   Q   Q   Q
|----------------------------------------------------------------------|
|-----12------12-------12------12-------12------12-------12------12----|
|-10------10-------10------10-------10------10-------10------10--------|
|----------------------------------------------------------------------|


    Q  Q  Q  Q   Q  Q  Q  Q
||---------------------------||
||o----4-----4--------------o||
||o-2-----2---------7-----4-o||
||---------------5-----2-----||


   Q   Q   Q   Q    Q   Q   Q   Q    Q   Q   Q   Q    Q   Q   Q   Q
|----------------------------------------------------------------------|
|-----12------12-------12------12-------12------12-------12------12----|
|-10------10-------10------10-------10------10-------10------10--------|
|----------------------------------------------------------------------|


    Q  Q  Q  Q   Q  Q  Q  Q  6x
||---------------------------||
||o----4-----4--------------o||
||o-2-----2---------7-----4-o||
||---------------5-----2-----||


   Q   Q   Q   Q    Q   Q   Q   Q    Q   Q   Q   Q    Q   Q   Q   Q
|----------------------------------------------------------------------|
|-----12------12-------12------12-------12------12-------12------12----|
|-10------10-------10------10-------10------10-------10------10--------|
|----------------------------------------------------------------------|


    E E E E E E E E  E E E E E E E E  3x
||------------------------------------||
||o----------------------------------o||
||o-2-2-2-2-5-5-5-5--4-4-4-4---------o||
||---------------------------5-5-2-5--||


  E E E E E E E E E E E E E E E E  H.
|----------------------------------------|
|----------------------------------------|
|-2-2-2-2-2-2-2-2-2-2-2-2-2-2-2-2s14-----|
|----------------------------------------|


акорди за китара

акорди за пиано

видео клип


© 2007-2017 akordite.com - Акорди и таблатури на български песни

Вход






Забравена парола
Нямате достъп?
Регистрирайте се!!!

Последни песни



Статистика

Песни: 1411
Потребители: 12750

В момента онлайн:

7 госта