[Всички песни]
[Скрий Акордите]
[Редактирай песента]

Печат
Гама
Am : Em : Bm : F#m : C#m : G#m : D#m : A#m : Dm : Gm : Dm : Fm : Bbm : Ebm : Abm

Жива рана


Изпълнител: Слави Трифонов

Албум: Новите варвари
Изпратил: Йорданка Спирова, trinity_sandman@hotmail.com


Поправка на "оригиналния" вариант на "Жива рана"!!! 
Разликата е, че според мене акордите D и Em въобще не присъстават в
ОРИГИНАЛНИЯ вариант, а се появява и нов акорд - F#m... Все пак СПОРЕД
МЕНЕ, но наистина смятам, че ПОПРАВКАТА СИ СТРУВА :)... 
Как я свиря аз... 


  Bm                              A
E----2---------2------|-----2---------0------|
B---3---------3-------|----3---------2-------|
G--4---------4--------|---4---------2--------|
D---------------------|----------------------|
A-2---------2---------|-2----------0---------|
e---------------------|----------------------|
  Онази     когато      ти ме      нали
  нощ       бях         викаше
            далеч
                                   Bm
E----0---------0------|----0----------2------|
B---2---------2-------|---2----------3-------|
G--2---------2--------|--2----------4--------|
D---------------------|----------------------|
A-0---------0---------|-0----------2---------|
e---------------------|----------------------|
  Ho твоят   не стигаше заглушен   лъжи
  глас       до мен     от чужди
  
  A         Bm          A          Bm                   
E----0---------2------|----0----------2------|
B---2---------3-------|---2-----------3------|
G--2---------4--------|--2-----------4-------|
D---------------------|-------------4--------|
A-0---------2---------|-0----------2---------|
E---------------------|----------------------|
  И от      пиян        те проклех за това
  болка


  G         F#          G   A   Bm  
E----3---------2------|-3---0---2-2-----0----|
B---3----3----2----2--|-3---2---3---3--------|
G--0------0--2------2-|-0---2---4---------4--|
D---------------------|-0---2---4------------|
A---------------------|-1---0---2------------|
e-3---------2---------|-3-------2------------|
  Че отново  съм сам     и боли любовта


ПРИПЕВ:


  Bm       F#m         G           A    G    
E----2---------2------|----3--------0----3---|
B---3---------2-------|---3---------2----3---|
G--4---------2--------|--0----------2----0---|
D---------------------|-------------2----0---|
A-2-------------------|-------------0----2---|
E-----------2---------|-3----------------3---|
  Боли     и ръцете    аз    защото    прегръщах
           си мразя              друга


  F#          Bm          F#m        G
E-2------2-----2------|----2---------3------|
B-2-----2-----3----3--|---2----2----3----3--|
G-3----3-----4------4-|--2------2--0------0-|
D-4---4---------------|---------------------|
A-4--4------2---------|---------------------|
E-2-------------------|-2---------3---------|
 с тях       И до кръв   устни пак  -ва, че не це-
             прехапвам   за то-


  A    G   F#          A           G    F#  
E-0----3----2---------|-0-----------3----2---|
B-2----3----2---------|-2-----------3----2---|
G-2----0----3---------|-2-----------0----3---|
D-2----0----4---------|-2-----------0----4---|
A-0----2----4---------|-0-----------2----4---|
E------3----2---------|-------------3----2---|
 -луват    теб        жива рана   вече  ти
    отново            за мене      си


  A           G    A     Bm
E----0--------3----0---|-2--------------------|
B---2----2----3----2---|-3--------------------|
G--2------2---0----2---|-4--------------------|
D-------------0----2---|-4--------------------|
A-0-----------2----0---|-2--------------------|
e-------------3--------|-2--------------------|
  Жива рана   ме- -не    боли
  във   

**************************** В2
Изпратил: Йорданка Спирова, trinity_sandman@hotmail.com


Да, забравих да отбележа, че и в интрото (дори транспонирано!) има
грешки!!!!!!!!!! То се състои САМО ОТ 2 АКОРДА - Bm и А.... Никак не
успявам да чуя трети......


ИНТРО: х2
  Bm                    Bm                     
E-2-2-----0---------0-|-2-2-----0------------|
B-3---3-------------2-|-3---3----------------|
G-4---------4-------2-|-4---------4----------|
D-4-----------------2-|-4--------------------|
A-2-----------------0-|-2--------------------|
E-2-------------------|-2--------------------|


  A                      Bm
E-0-2------0-----------|-2-2-----0-----------|
B-2---3------2---------|-3---3---------------|
G-2--------------------|-4---------4---------|
D-2--------------------|-4-------------------|
A-0--------------------|-2-------------------|
E----------------------|-2-------------------|    


**************************** В3
Изпратил: Петър Събев (http://psabev.hit.bg)

 
ВАРИАНТ 1: ЛЕСЕН

Intro:
     Am		      F                 G                 Am
E --0--0----0---------1--1-----1--------3--3-----3--------0--0----0--
H --1----1------------1-----1-----------3-----3-----------1----1-----
G --2----------2------2-----------2-----4-----------4-----2---------2
D --2-----------------3-----------------5-----------------2----------
A --0-----------------3-----------------5-----------------0----------
E --------------------1-----------------3----------------------------

				                 Ааааа-aaaaaaaaaaa...

     Am		      F                 G                 Am
E --0--0----0---------1--1-----1--------3--3-----3--------0--0----0--
H --1----1------------1-----1-----------3-----3-----------1----1-----
G --2----------2------2-----------2-----4-----------4-----2---------2
D --2-----------------3-----------------5-----------------2----------
A --0-----------------3-----------------5-----------------0----------
E --------------------1-----------------3----------------------------

   ...aaaaa....

В онази [Am]нощ, когато бях далеч
ти ме викаше, на[G]ли?
Но твоят глас не стигаше до мен,
заглушен от чужди лъ[Am]жи...

И от [G]болка пи[Am]ян те про[G]клех за то[F]ва,
че от[C]ново съм [G]сам [Dm]и [E]боли любов[Am]та.

Бо[Am]ли и ръ[E]цете си мразя [Dm]аз,
защото [G]друга пре[E]гръщах с [Am]тях.
И до [Am]кръв прехапвам [E]устни пак за то[Dm]ва,
че не це[G]луват от[E]ново [Am]теб.
Жива [G]рана за мене [F]вече си [Am]ти...
Жива [G]рана във [Dm]ме[E]не бо[Am]ли...

Сълзите ти да видя не можах,
ослепен от блясък фалшив.
Изгубен бях
по вятъра вървях
и не знаех, че мен чакаш ти.

И от болка пиян те проклех за това,
че отново съм сам и боли любовта.

Боли и ръцете си мразя аз,
защото друга прегръщах с тях.
И до кръв прехапвам устни пак за това,
че не целуват отново теб.
Жива рана за мене вече си ти...
Жива рана във мене боли...

Соло:...

И от болка пиян те проклех за това,
че отново съм сам и боли любовта.

Боли и ръцете си мразя аз,
защото друга прегръщах с тях.
И до кръв прехапвам устни пак за това,
че не целуват отново теб.
Жива рана за мене вече си ти...
Жива рана във мене боли...

Аааааа...

_______________________________


ВАРИАНТ 2: ОРИГИНАЛЕН :)) (транспониран 2 полутона)

Intro: същото разлагане с акорди Hm|G|A|Hm
Bm|A|Bm
А|Bm|A|G|D|A|Em|F#|Bm
Пр. Bm|F#|Em
    A|F#|Bm
    Bm|F#|Em
    A|F#|Bm
    A|Em|Bm
    A|Em|F#|Bm


акорди за китара

акорди за пиано

видео клип


© 2007-2017 akordite.com - Акорди и таблатури на български песни

Вход






Забравена парола
Нямате достъп?
Регистрирайте се!!!

Последни песни



Статистика

Песни: 1411
Потребители: 12816

В момента онлайн:

1 гост