[Всички песни]
[Скрий Акордите]
[Редактирай песента]

Печат
Гама
C : G : D : A : E : B : F# : C# : F : Bb : Eb : Ab : Db : Gb

Ала-бала


Изпълнител: Ревю
Текст: В.Гюров
Музика: Б.Карабойчев,К.Манчев,В.Гюров
Албум: РЕВЮ 88-89
Изпратил: dixy

Gtr I (E A D G B E) - 'Untitled'

    Q=180
    Gtr I
    E E E E E E E E  E E Q.   H    E E E E E E E E  E Q.  Q.   4x
||----------------------------------------------------9--------||
||o----------------------7---------9-8-9-7-9---9----9-9-------o||
||----6-5-6-6-5-6-6--5-6-8----5--------------9---8--------6----||
||----------------------------6---------------------------6----||
||o-----------------------------------------------------------o||
||-------------------------------------------------------------||


  

    E  E E  E E  E E  E E   E E  E E  E E  E E  E E E E E E E E  E E E E E E E   4x
||-----9----9----9----9-----8----8----8----8----5---5---5---5----4---4---4---4---||
||o----9----9----9----9-----9----9----9----9----5---5---5---5----5---5---5---5--o||
||-----9----9----9----9-----8----8----8----8----6---6---6---6----6---6---6---6---||
||----11---11---11---11----10---10---10---10----7---7---7---7----6---6---6---6---||
||o-----------------------------------------------------------------------------o||
||-------------------------------------------------------------------------------||


    E E Q E E Q  E  E Q  E  E Q  3x
||--7-7---7-7----9--9----9--9----||
||o-7-7---7-7----9--9----9--9---o||
||--8-8---8-8----9--9----9--9----||
||--9-9---9-9---11-11---11-11----||
||o-----------------------------o||
||-------------------------------||


  E E E E E E E E  Q   Q
|---------------------------|
|---------------------------|
|---------------------------|
|-9-9-9-9-9-9-9-9-13--13----|
|-7-7-7-7-7-7-7-7-11--11----|
|---------------------------|


  Q    Q  H    Q    Q
|----------------------|
|----------------------|
|--------------5b6r====|
|-------------------6--|
|-3b4r=================|
|------4---------------|


    E E E E E E E E  E E Q.   H     E E E E E E E E  E Q.   Q.
||-----------------------------------------------------9---------||
||o----------------------7----------9-8-9-7-9---9----9-9--------o||
||----6-5-6-6-5-6-6--5-6-8----5---------------9---8---------6----||
||----------------------------6-----------------------------6----||
||o-------------------------------------------------------------o||
||---------------------------------------------------------------||


  Q      E  E E  E E  E E  E E   E E  E E  E E  E E  E E E E E E E E  E E E E E E E    4x
||------9----9----9----9-----8----8----8----8----5---5---5---5----4---4---4---4----||
||o-----9----9----9----9-----9----9----9----9----5---5---5---5----5---5---5---5---o||
||------9----9----9----9-----8----8----8----8----6---6---6---6----6---6---6---6----||
||-----11---11---11---11----10---10---10---10----7---7---7---7----6---6---6---6----||
||o-------------------------------------------------------------------------------o||
||---------------------------------------------------------------------------------||




    E E Q  E E Q    E  E Q   E  E Q  3x
||--7-7----7-7------9--9-----9--9----||----|
||o-7-7----7-7------9--9-----9--9---o||----|
||--8-8----8-8------9--9-----9--9----||----|
||--9-9----9-9-----11-11----11-11----||----|
||o---------------------------------o||----|
||-----------------------------------||----|


  E E E E E E E E   Q   Q
|----------------------------|
|----------------------------|
|----------------------------|
|-9-9-9-9-9-9-9-9--13--13----|
|-7-7-7-7-7-7-7-7--11--11----|
|----------------------------|


  W       H E E E E E E E E  W  W        W
|---------------------------------------------|
|---------------------5---4-------------------|
|-------------6---5---6---5-------------------|
|-------------7---6---------------------------|
|---------------------------------------------|
|---------------------------------------------|


   E  S  S  E  S  S  E  S  S  E  S S  W  H
|---------------------------------------------|
|-14------------------------------------------|
|----12----12---------------------------------|
|-------11----11----12------------------------|
|----------------10----10----11---------------|
|-------------------------10----10-9----------|


  Q    Q
|--------|
|--------|
|-5b6r===|
|------6-|
|--------|
|--------|


    E E E E E E  E E E E Q.   H     E E E E E E E E  E Q.   Q.
||-----------------------------------------------------9---------||
||o----------------------7----------9-8-9-7-9---9----9-9--------o||
||----6-5-6-6-5--6-6-5-6-8----5---------------9---8---------6----||
||----------------------------6-----------------------------6----||
||o-------------------------------------------------------------o||
||---------------------------------------------------------------||


  Q     E  E E  E E  E E  E E   E E  E E  E E  E E  E E E E E E E E  E E E E E E E   4x
|---||-----9----9----9----9-----8----8----8----8----5---5---5---5----4---4---4---4---||
|---||o----9----9----9----9-----9----9----9----9----5---5---5---5----5---5---5---5--o||
|---||-----9----9----9----9-----8----8----8----8----6---6---6---6----6---6---6---6---||
|---||----11---11---11---11----10---10---10---10----7---7---7---7----6---6---6---6---||
|---||o-----------------------------------------------------------------------------o||
|---||-------------------------------------------------------------------------------||




      E E Q  E E Q    E  E Q   E  E Q   3x
|-||--7-7----7-7------9--9-----9--9-----||
|-||o-7-7----7-7------9--9-----9--9----o||
|-||--8-8----8-8------9--9-----9--9-----||
|-||--9-9----9-9-----11-11----11-11-----||
|-||o----------------------------------o||
|-||------------------------------------||


  E E E E E E E E   Q   Q
|----------------------------|
|----------------------------|
|----------------------------|
|-9-9-9-9-9-9-9-9--13--13----|
|-7-7-7-7-7-7-7-7--11--11----|
|----------------------------|


  Q    Q  H     Q    Q
|-----------------------|
|-----------------------|
|---------------5b6r====|
|--------------------6--|
|-3b4r==================|
|------4----------------|


     E E E E  E E E E E E Q.    H    E E E E  E E E E E Q.    Q.
||------------------------------------------------------9-----------||
||o-----------------------7----------9-8-9-7--9---9---9-9----------o||
||-----6-5-6--6-5-6-6-5-6-8-----5---------------9---8---------6-----||
||------------------------------6-----------------------------6-----||
||o----------------------------------------------------------------o||
||------------------------------------------------------------------||


 


    E  E E  E E  E E  E  E  E E  E E  E E  E  E E E E E E E E  E E E E E E E E  4x
||-----9----9----9----9-----8----8----8----8----5---5---5---5----4---4---4---4--||----|
||o----9----9----9----9-----9----9----9----9----5---5---5---5----5---5---5---5-o||----|
||-----9----9----9----9-----8----8----8----8----6---6---6---6----6---6---6---6--||----|
||----11---11---11---11----10---10---10---10----7---7---7---7----6---6---6---6--||----|
||o----------------------------------------------------------------------------o||----|
||------------------------------------------------------------------------------||----|


      E E Q  E E Q    E  E Q   E  E Q  3x
|-||--7-7----7-7------9--9-----9--9----||----|
|-||o-7-7----7-7------9--9-----9--9---o||----|
|-||--8-8----8-8------9--9-----9--9----||----|
|-||--9-9----9-9-----11-11----11-11----||----|
|-||o---------------------------------o||----|
|-||-----------------------------------||----|


  E E E E E E E E   Q   Q H
|------------------------------|
|------------------------------|
|------------------------------|
|-9-9-9-9-9-9-9-9--13--13------|
|-7-7-7-7-7-7-7-7--11--11------|
|------------------------------|


   E  E  E  E  E  E  E  E  Q   H.   Q     E   Q     E   E     E   Q   H Q
|-12-11----------------------------------------------------------------------|
|-------14-12-----------------------------9---------9---------9--------------|
|-------------14-13-11----11s=13---11b13r====11b13r====11b13r====11s=13------|
|----------------------14----------------------------------------------------|
|----------------------------------------------------------------------------|
|----------------------------------------------------------------------------|


   E  E  E  E  E  E  E  E  H. Q  E  Q   Q   E  E  E   E  E  Q  Q Q
|---------------------------------------------------------------------|
|------------------------------------------------12-------------------|
|--------------------------------------11--13-14-----14p13-11-13------|
|-11-14-14-11-14-14-11-14-13----13-14---------------------------------|
|---------------------------------------------------------------------|
|---------------------------------------------------------------------|


   E  E E  E E  E E  E   E  E E  H E  E  E  E  E  E  E  E  E   E  E E  H E
|-----------------------------------------------------------------------------|
|-17-17--------17-------16-16-----------16-16----16-16----16--16-17-----------|
|---------18--------18----------17---17-------17-------17-------------18------|
|-----------------------------------------------------------------------------|
|-----------------------------------------------------------------------------|
|-----------------------------------------------------------------------------|


   E  E  E  E  S  S   E  E  E  E  Q  Q  E  E  E  E  Q  Q  E  E  E  E  Q   Q. Q
|---------------------------------------------------------------------------------|
|-14------------------------------------------------------------------------------|
|----16-14-16-14h16--13-14-13-----------------------------------------------------|
|-----------------------------16-14-13-16-14-13-16-14-13-16-14-13-16-13-----------|
|------------------------------------------------------------------------16-------|
|---------------------------------------------------------------------------------|


    E E Q  E E Q    E  E Q   E  E Q  3x
||--7-7----7-7------9--9-----9--9----||
||o-7-7----7-7------9--9-----9--9---o||
||--8-8----8-8------9--9-----9--9----||
||--9-9----9-9-----11-11----11-11----||
||o---------------------------------o||
||-----------------------------------||


  E E E E E E E E   Q   H
|----------------------------|
|----------------------------|
|----------------------------|
|-9-9-9-9-9-9-9-9--13--13----|
|-7-7-7-7-7-7-7-7--11--11----|
|----------------------------|

Бели квадрати, зелени черти,
улици малки, човешки съдби.
Жълти поляни, лилави гори,
нежни прояви и сладки лъжи.

Замислена книга неволно танцува,
бедна къртица отрича света.
Високо в небето абстрактни кълвачи,
продали честта си търсят храна.

По реката огромна пътува морето,
слънцето радостно маха с ръка.
Дяволи пеят песен след песен,
бавно, лениво медитира нощта.

Аз съм черна пенлива история,
приличам на чаша студена вода.
Имам реклама, имам поклонници,
в сърцето си нося гъста мъгла

акорди за китара

акорди за пиано

видео клип


© 2007-2017 akordite.com - Акорди и таблатури на български песни

Вход






Забравена парола
Нямате достъп?
Регистрирайте се!!!

Последни песни



Статистика

Песни: 1411
Потребители: 12814

В момента онлайн:

1 гост