[Всички песни]
[Скрий Акордите]
[Редактирай песента]

Печат
Гама
C : G : D : A : E : B : F# : C# : F : Bb : Eb : Ab : Db : Gb

Дива роза


Изпълнител: Дони и Момчил

Изпратил: kelikandzer

Интро:

   G           Am          G          Am           D               Am

е----10---8--7---------------10---8--7-------------------------------------
B--8-----------10--8-------8-----------10--8---12--10---10-12-13-12--8--8--
G---------------------9s7--------------------------------------------------

     D          C              G           Am         G          Am
e--------------------------------10---8--7-------------10---8--7-----------
B---10---10s12--10--8----8-----8-----------10--8-----8-----------10--8-----
G----------------------9---9---------------------9s7-----------------------

        D              Am            D       Am      C     D
e--------------------------------------------------------------------------
B---12--10-----10-12-13-12--8--8-----10---10s12--10--8---------------------
G------------------------------------------------------9----7~-------------



 [G]Бяла приказка край [Am]мен расте,
 [G]с аромат на диви [Am[цветове,
 а [C]беше малка [D]вчера.
 "Дива [G]роза"


 [G]Бели камани край [Am]теб блестят.
 [G]Те въздъхват неми [Am]всеки път,
 ког[C]ато дойде у[D]тро.
 "Дива [G]роза"

               
 [G]Бели нощи пият [Am]дневен сън,
 [G]всичко диша твоя [Am]дъх на вън
 а [C]ти очакваш [D]утре.
 "Дива [G]роза"


 [Am]Роса цветове[D]покрива,
 [G]сутрин на нежност и[C]светлина.
 [Am]Роса моят [D]сън изпива,
 с [C]твоя сън... "Дива [D]роза"

 Соло:G-Am/G-Am/C-D/  /x/ 2

 Роса цветове покрива,
 сутрин на нежност и светлина.
 Роса моят сън изпива
 с твоя сън... "Дива роза"
  
Бяла приказка край мен раст
с аромат на диви цветове,
а беше малка вчера,
"Дива роза"
     
...а беше малка вчера, "Дива роза" /2/


акорди за китара

акорди за пиано

видео клип


© 2007-2017 akordite.com - Акорди и таблатури на български песни

Вход






Забравена парола
Нямате достъп?
Регистрирайте се!!!

Последни песни



Статистика

Песни: 1411
Потребители: 12623

В момента онлайн:

7 госта и 1 потребител
  • vladicheto