[Всички песни]
[Скрий Акордите]
[Редактирай песента]

Печат
Гама
C : G : D : A : E : B : F# : C# : F : Bb : Eb : Ab : Db : Gb

Върни се


Изпълнител: БТР

                                                                               
E||--3-5-10--------------------|---------------------|------------------------|
B||---------10-8-10-8-7--------|------7--------------|------------------------|
G||---------------------7------|--5-7---7-5-7--------|--0---7---0---0---------|
D||----------------------------|--------------7------|----7---7---7--------3--|
A||----------------------------|---------------------|-------------------3----|
D||----------------------------|---------------------|------------------------|


                                                               
---------|----------------|------------------|--------0-------|
---------|--------8-7-----|------------------|----------3-----|
---------|------------7---|------0-----0-----|-----2------2---|
--5------|-----7----------|----2-----0-------|--------------0-|
--5------|--5-----------5-|--3-----2---------|----------------|
--5------|----------------|--------------3-4-|--0-------------|


                                                                        
------------------|--------3-2-----|------------------|--------0-------|
------------------|------------3---|------------------|----------3-----|
------0-----0-----|-----2----------|------0-----0-----|-----2------2---|
----0-----0-------|--0-----------0-|----2-----0-------|--------------0-|
--2-----3-----2-3-|----------------|--3-----2---------|----------------|
------------------|----------------|--------------3-4-|--0-------------|


                                                                    
------------------|--------0-----|--3-----0-------|--------2-------|
------------------|-----------1--|----1------1----|----------3---3-|
------0-----0-----|--------------|------0------0--|-----2------2---|
----0-----0-------|--0--2--------|----------------|--0-------------|
--2-----3-----2-3-|--0-----------|----------------|----------------|
------------------|--------------|----------------|----------------|


                                                                
--5-5--3--2-----|--0-----0-----|--3-----0-------|--2--2--2--3--|
--3-3--3----3---|--1--------1--|----1------1----|--3--3--3--3--|
--2-2--2------2-|--0-----------|------0------0--|--2--2--2--2--|
--0-------------|--2--2--------|----------------|--0--0--0--0--|
----------------|--0-----------|----------------|--------------|
----------------|--------------|----------------|--------------|


                                                                             
--5--5-5----5-5-|--3---3-3---3-|--3-3--3--3--3-|--2----2---2-|--5-5--5--5---|
--3--3----3-3-3-|--3---3-3---3-|--3-3--3--3--3-|--3----3---3-|--3-3--3--3---|
--2--2----2-2-2-|--4---4-4---4-|--4-4--4--4--4-|--2----2---2-|--2-2--2--2---|
--0--0----0-0-0-|--5---5-5---5-|--5-5--5--5--5-|--0----0-----|--0-0--0--0---|
----------------|--5---5-5---5-|--5-5--5--5--5-|--0----0-----|--------------|
----------------|--------------|---------------|--0----0-----|--------------|


                                                                   
--------0------|--------2------|--------0------|------3-2-3-2-----|
----------1----|----------3----|----------1----|--------------3---|
------------0--|------------2--|------------0--|----2-----------2-|
-----2---------|-----4---------|-----2---------|--0---------------|
--0------------|--2------------|--3------------|------------------|
---------------|---------------|---------------|------------------|


                                                                          
--------0------|--------2------|--3---3---3--|------------|--0---0--0-0--|
----------1----|----------3----|--3---3---3--|------------|--1---1--1-1--|
------------0--|------------2--|--0---0---0--|-------0----|--0---0--0-0--|
-----2---------|-----4---------|--2---2---2--|----0-------|--2---2--2-2--|
--0------------|--2------------|--3---3---3--|------------|--3---3--3-3--|
---------------|---------------|-------------|------------|--------------|


                                                                               
----------|--0--------|----------|----------|----------|----------|--0--------|
----------|--3--------|----------|----------|----------|----------|--0--------|
----------|--0--------|----------|----------|----------|----------|--0--------|
----------|--4--------|----------|----------|----------|----------|-----------|
----------|--5--------|----------|----------|----------|----------|-----------|
----------|-----------|----------|----------|----------|----------|-----------|


                                                                   
-----------|----------|--2----2---2-|--5-5--3--2--0-|--3----3---3-|
--0--------|----------|--3----3---3-|--3-3--3--3--1-|--1----1---1-|
-----------|----------|--2----2---2-|--2-2--2--2----|--0----0---0-|
-----------|----------|--0----0---0-|--0----0--0----|-------------|
-----------|----------|--0----0-----|---------------|--0----0-----|
-----------|----------|--0----0-----|---------------|-------------|


                                                                          
--3-3--2--3---|--3----3---3-|--3-3--5-----2-|------2---2-|--5-5--3--2--3-|
--1-1--1--1---|--3----3---3-|--3-3--3--3----|------3---3-|--3-3--3--3--3-|
--0-0--0--0---|--4----4---4-|--4-4--4--4----|------2---2-|--2-2--2--2----|
--------------|--5----5-----|--5------------|------0-----|--0------------|
--0-----------|-------------|---------------|------------|---------------|
--------------|-------------|---------------|------------|---------------|


                                                                         
--3----3---3-|--3-3--5--3---|--2--2--2--3--|--5--5-5-5-5-5-5-|----------|
--3----3---3-|--3-3--3--3---|--3--3--3--3--|--3--3-3-3-3-3-3-|----------|
--4----4---4-|--4-4--4--4---|--2--2--2--2--|--2--2-2-2-2-2-2-|----------|
--5----5-----|--5-----------|--0--0--0--0--|--0--0-0-0-0-0-0-|----------|
-------------|--------------|--------------|-----------------|----------|
-------------|--------------|--------------|-----------------|----------|


                                    
--0-2-------|----------|----------||
--3---------|----------|----------||
--2---------|----------|----------||
--0---------|----------|----------||
------------|----------|----------||
------------|----------|----------|

акорди за китара

акорди за пиано

© 2007-2017 akordite.com - Акорди и таблатури на български песни

Вход






Забравена парола
Нямате достъп?
Регистрирайте се!!!

Статистика

Песни: 1490
Потребители: 13659

В момента онлайн:

1 гост