[Всички песни]
[Скрий Акордите]
[Редактирай песента]

Печат
Гама
C : G : D : A : E : B : F# : C# : F : Bb : Eb : Ab : Db : Gb

В едно кьоше седи шише


Изпълнител: Подуене Блус Бенд

Изпратил: sotislav@yahoo.com (Сотислав Божков)



Тоналност - например G.

 [G]В едно кьоше седи шише fill 1
 и тихо в тъмното се крие fill 1
 Така седим си насаме [C7] fill 2
 дали пък да де го изпия [G] fill 1
 В едно кьоше седи шише [D7] fill 3
 [C7]Ще го изгълтам без мезе[G]

b---5/6--5/6--5/6-6--
c---6/7--6/7--6/7-7--5--3----3v
d-------------------------5
                            

А във таванската саксия
пораснала е меродия
Аз гледам странните листа
Омайна флора на света
Така и без вода расте
Ще го излапам за мезе

Соло......

А на последната седалка,
Седи една девойка малка
Така я гледам странно, странно
Събудих се в депо трамвайно
Не беше ли във автобус
Рокендрол - това е блус.

В едно кьоше седи шише (5)
В едно шише седи  кьоше. 


fill 1:
e---------------------------------
B----3--5----5/6-6--5--3---------
G----4--5----6/7-7--5--3h4p3h4p3--
D----5--5-----------5-------------
A---------------------------------
E---------------------------------


fill 2:
e---------------------------------
B----8--10----10/11-10----8---------
G----9--10----11/12-10----8h9p8h9p8--
D----10-10----------10-------------
A---------------------------------
E---------------------------------

fill 3:
e---------------------------------
B----10--12----12/13-12-------------
G----11--12----13/14-12-----------
D----11--12----------12-------------
A---------------------------------
E---------------------------------


Наздраве !

 


акорди за китара

акорди за пиано

© 2007-2017 akordite.com - Акорди и таблатури на български песни

Вход






Забравена парола
Нямате достъп?
Регистрирайте се!!!

Последни песни



Статистика

Песни: 1411
Потребители: 12625

В момента онлайн:

1 гост и 1 потребител
  • neyche