[Всички песни]
[Скрий Акордите]
[Редактирай песента]

Печат
Гама
C : G : D : A : E : B : F# : C# : F : Bb : Eb : Ab : Db : Gb

Нова грацка песен


Изпълнител: Хиподил

Изпратил: z_pavlov@bitex.bg



 Intro      Play 4 times     
e||---------------------|---------------------|---------------------|
B||o-------------------o|o--------------------|---------------------|
G||---------------------|---------------------|---------------------|
D||--2---2---2---2-222--|--2---2---2---2-222--|--2---2---2---2-222--|
A||o-2---2---2---2-222-o|o-2---2---2---2-222--|--2---2---2---2-222--|
E||--0---0---0---0-000--|--0---0---0---0-000--|--0---0---0---0-000--|
    |P.M..............|   |P.M....................................|  
e||---------------------|---------------------|---------------------|
B||---------------------|---------------------|---------------------|
G||--4---4---4---4-444--|--4---4---4---4-444--|--4---4---4---4-444--|
D||--4---4---4---4-444--|--4---4---4---4-444--|--4---4---4---4-444--|
A||--2---2---2---2-222--|--2---2---2---2-222--|--2---2---2---2-222--|
E||---------------------|---------------------|---------------------|
    |P.M..........................................................|
                         ___________________________________________
                        |1.                                         |
e||---------------------|---------------------|---------------------|
B||---------------------|---------------------|--------------------o|
G||--4---4---4---4-444--|---------------------|---------------------|
D||--4---4---4---4-444--|--2---2---2---2-222--|--2---2---2---2-222--|
A||--2---2---2---2-222--|--2---2---2---2-222--|--2---2---2---2-222-o|
E||---------------------|--0---0---0---0-000--|--0---0---0---0-000--|
    |P.M..........................................................|  
   _____________________                                                 
  |2.                >  |                >              >              
e||---------------------|-------------|--------------|--------------|  
B||---------------------|-------------|--------------|--------------|  
G||---------------------|-------------|--2-----------|--------------| 
D||--2-2-2-2-2-2-2-2-2--|-------------|--2-----------|--2--------2--|   
A||--2-2-2-2-2-2-2-2-2--|-------------|--0-----------|--2--------2--|  
E||--0-0-0-0-0-0-0-0-0--|--0---2---3--|--------------|--0--------0--|
    |P.M............|
     >                   >   >   >     >
e||---------------------------------|---------------|---------------|
B||---------------------------------|---------------|---------------|
G||--4---4-4-4-4-4-444-4-4---4---4--|---------------|---------------|
D||--4---4-4-4-4-4-444-4-4---4---4--|--2------------|---------------|
A||--2---2-2-2-2-2-222-2-2---2---2--|--2------------|---------------|
E||---------------------------------|--0------------|---0---2---3---|
        |P.M......|   P.M
     >                     >
e||---------------------|---------------------------------|
B||---------------------|---------------------------------|
G||--2------------------|---------------------------------|
D||--2------------------|--2---2-2-2-2-2-2-2-2-2-2-2-2-2--|
A||--0------------------|--2---2-2-2-2-2-2-2-2-2-2-2-2-2--|
E||---------------------|--0---0-0-0-0-0-0-0-0-0-0-0-0-0--|
                              |P.M....................|
     >                   >   >   >     >               .
e||---------------------------------|---------------------|
B||---------------------------------|---------------------|
G||--4---4-4-4-4-4-4-4-4-4---4---4--|---------------------|
D||--4---4-4-4-4-4-4-4-4-4---4---4--|--2---------------2--|
A||--2---2-2-2-2-2-2-2-2-2---2---2--|--2---------------2--|
E||---------------------------------|--0---------------0--|
        |P.M............|                             
e||---------------------|---------------------|
B||o--------------------|---------------------|
G||---------------------|---------------------|
D||--2---2---2---2-222--|--2---2---2---2-222--|
A||o-2---2---2---2-222--|--2---2---2---2-222--|
E||--0---0---0---0-000--|--0---0---0---0-000--|
    |P.M..............|   |P.M..............|  
e||---------------------|---------------------|---------------------|
B||---------------------|---------------------|---------------------|
G||--4---4---4---4-444--|--4---4---4---4-444--|--4---4---4---4-444--|
D||--4---4---4---4-444--|--4---4---4---4-444--|--4---4---4---4-444--|
A||--2---2---2---2-222--|--2---2---2---2-222--|--2---2---2---2-222--|
E||---------------------|---------------------|---------------------|
    |P.M..........................................................|
                         ___________________________________________
                        |1.                                         |
e||---------------------|---------------------|---------------------|
B||---------------------|---------------------|--------------------o|
G||--4---4---4---4-444--|---------------------|---------------------|
D||--4---4---4---4-444--|--2---2---2---2-222--|--2---2---2---2-222--|
A||--2---2---2---2-222--|--2---2---2---2-222--|--2---2---2---2-222-o|
E||---------------------|--0---0---0---0-000--|--0---0---0---0-000--|
    |P.M..........................................................|  
   _____________________                                                 
  |2.                >  |                      >                         
e||---------------------|-------------------|-----------------------|  
B||---------------------|-------------------|-----------------------|  
G||---------------------|-------------------|--2-----------------2--| 
D||--2-2-2-2-2-2-2-2-2--|-------------------|--2-----------------2--|   
A||--2-2-2-2-2-2-2-2-2--|-------------------|--0-----------------0--|  
E||--0-0-0-0-0-0-0-0-0--|---------2----3----|-----------------------|
    |P.M............|
     >                           >     >                         > >
e||---------------------------------|---------------------------------|
B||---------------------------------|---------------------------------|
G||---------------------------------|--4---4-4-4-4-4-4-4-4-4-4-4-4-4--|
D||--2---2-2-2-2-2-2-2-2-2-2-2-2-2--|--4---4-4-4-4-4-4-4-4-4-4-4-4-4--|
A||--2---2-2-2-2-2-2-2-2-2-2-2-2-2--|--2---2-2-2-2-2-2-2-2-2-2-2-2-2--|
E||--0---0-0-0-0-0-0-0-0-0-0-0-0-0--|---------------------------------|
        |P.M....................|         |P.M..................|
     >                               >           >     >           >
e||---------------|---------------|-----------------|-----------------|
B||---------------|---------------|-----------------|-----------------|
G||---------------|---------------|--2-------2-2-2--|-----------------|
D||--2------------|---------------|--2-------2-2-2--|--2-------2-2-2--|
A||--2------------|---------------|--0-------0-0-0--|--2-------2-2-2--|
E||--0------------|---0---2---3---|-----------------|--0-------0-0-0--|
                                            |P.M|             |P.M| 
     >            >   Соло...w/Rhy.Fig.1       >            >
e||------------|------------|---------------|------------|------------|
B||------------|------------|---------------|------------|------------|
G||--4---------|------------|---------------|--2---------|------------|
D||--4---------|--2---------|---------------|--2---------|--2---------|
A||--2---------|--2---------|---------------|--0---------|--2---------|
E||------------|--0---------|---0---2---3---|------------|--0---------|
     >                   >   >   >     >                       >
e||---------------------------------|---------|-------------|---------|
B||---------------------------------|---------|o------------|---------|
G||--4---4-4-4-4-4-4-4-4-4---4---4--|---------|-------------|--2------|
D||--4---4-4-4-4-4-4-4-4-4---4---4--|--2------|-------------|--2------|
A||--2---2-2-2-2-2-2-2-2-2---2---2--|--2------|o------------|--0------|
E||---------------------------------|--0------|---0--2--3---|---------|
        |P.M............|  
     >                                   >                           > >
e||-----------------------------------|-----------------------------------|
B||-----------------------------------|-----------------------------------|
G||-----------------------------------|--4---4-4-4-4-4-4-4-4-4-4-4-4-4-4--|
D||--2---2-2-2-2-2-2-2-2-2-2-2-2-2-2--|--4---4-4-4-4-4-4-4-4-4-4-4-4-4-4--|
A||--2---2-2-2-2-2-2-2-2-2-2-2-2-2-2--|--2---2-2-2-2-2-2-2-2-2-2-2-2-2-2--|
E||--0---0-0-0-0-0-0-0-0-0-0-0-0-0-0--|-----------------------------------|
        |P.M........................|       |P.M....................|
     >               .                   w/Rhy.Fig.2     > >
e||---------------------|---------------|---------------------|
B||--------------------o|---------------|---------------------|
G||---------------------|---------------|--2---2-2-2-2-2-2-2--|
D||--2---2-2-2-2-2-2-2--|---------------|--2---2-2-2-2-2-2-2--|
A||--2---2-2-2-2-2-2-2-o|---------------|--0---0-0-0-0-0-0-0--|
E||--0---0-0-0-0-0-0-0--|---0---2---3---|---------------------|
        |P.M........|                         |P.M......|
     >                                   >                           > >
e||-----------------------------------|-----------------------------------|
B||-----------------------------------|-----------------------------------|
G||-----------------------------------|--4---4-4-4-4-4-4-4-4-4-4-4-4-4-4--|
D||--2---2-2-2-2-2-2-2-2-2-2-2-2-2-2--|--4---4-4-4-4-4-4-4-4-4-4-4-4-4-4--|
A||--2---2-2-2-2-2-2-2-2-2-2-2-2-2-2--|--2---2-2-2-2-2-2-2-2-2-2-2-2-2-2--|
E||--0---0-0-0-0-0-0-0-0-0-0-0-0-0-0--|-----------------------------------|
        |P.M........................|       |P.M....................|
     >               >                     >             
e||---------------------|---------------|-----------------------------------|
B||---------------------|o--------------|-----------------------------------|
G||---------------------|---------------|--2---2-2-2-2-2-2-2-2-2-2-2-2-2-2--|
D||--2---2-2-2-2-2-2-2--|---------------|--2---2-2-2-2-2-2-2-2-2-2-2-2-2-2--|
A||--2---2-2-2-2-2-2-2--|o--------------|--0---0-0-0-0-0-0-0-0-0-0-0-0-0-0--|
E||--0---0-0-0-0-0-0-0--|---0---2---3---|-----------------------------------|
        |P.M........|                         |P.M........................|
     >                             >     >                             >
e||-----------------------------------|-----------------------------------|
B||-----------------------------------|-----------------------------------|
G||-----------------------------------|--4---4-4-4-4-4-4-4-4-4-4-4-4-4-4--|
D||--2---2-2-2-2-2-2-2-2-2-2-2-2-2-2--|--4---4-4-4-4-4-4-4-4-4-4-4-4-4-4--|
A||--2---2-2-2-2-2-2-2-2-2-2-2-2-2-2--|--2---2-2-2-2-2-2-2-2-2-2-2-2-2-2--|
E||--0---0-0-0-0-0-0-0-0-0-0-0-0-0-0--|-----------------------------------|
        |P.M......................|         |P.M......................|
     >          Fade out          
e||---------------------||
B||--------------------o||
G||---------------------||
D||--2---2-2-2-2-2-2-2--||
A||--2---2-2-2-2-2-2-2-o||
E||--0---0-0-0-0-0-0-0--||
        |P.M........|    
   Rhy.Fig.1                          
e||-----------------------------------------------------|
B||-----------------------------------------------------|
G||------------------9-9---9-9-9--11b--11-11-9----------|
D||----------------------------------------------9-9-9--|
A||------9--10--12--------------------------------------|
E||--12-------------------------------------------------|
e||--------------------------------------------|
B||--------------------------------------------|
G||--------------------------------------------|
D||--9-10-9-10-9-10-9-10--------------------9--|
A||-----------------------9--9-9---9-10-12-----|
E||--------------------------------------------|
    |P.M................|
e||--------------------------------------------------|
B||-------------------------------___bf__------------|
G||------------------9-9---9-9-9-(9-9-999)-9-999-----|
D||---------------------------------------------- 9--|
A||------9--10--12-----------------------------------|
E||--12----------------------------------------------|
                                      (end Rhy.Fig.1)
e||--------------------------------------------------|
B||--------------------------------------------------|
G||--------------------------------------------------|
D||--9-9-9-10-10-9-9-9--------------9----------------|
A||--------------------9---9-9---9-----10------------|
E||----------------------------------------12---12\--|
   Rhy.Fig.2
e||----3-2-0---3-2-0---3-2-0-------------|
B||--------------------------1--0---0-0--|
G||--2-------2-------2-------------------|
D||--------------------------------------|
A||--------------------------------------|
E||--------------------------------------|
    |P.M....................|
e||-----------------------------------------|
B||--1-0h1p0--0-/7---7--7---10--8--5---5-5--|
G||-----------------------------------------|
D||-----------------------------------------|
A||-----------------------------------------|
E||-----------------------------------------|
e||----3-2-0---3-2-0---3-2-0-------2-0--------2-0--|
B||--------------------------1--0-------1--0-------|
G||--2-------2-------2-----------------------------|
D||------------------------------------------------|
A||------------------------------------------------|
E||------------------------------------------------|
    |P.M....................|
                                  (end Rhy.Fig.2)
e||------------------------------------7-7-7-7\--|
B||--1-0h1p0--0-/7---7--7---10--8--5-------------|
G||----------------------------------------------|
D||----------------------------------------------|
A||----------------------------------------------|
E||----------------------------------------------

акорди за китара

акорди за пиано

© 2007-2017 akordite.com - Акорди и таблатури на български песни

Вход






Забравена парола
Нямате достъп?
Регистрирайте се!!!

Последни песни



Статистика

Песни: 1411
Потребители: 12623

В момента онлайн:

7 госта