[Всички песни]
[Скрий Акордите]
[Редактирай песента]

Печат
Гама
C : G : D : A : E : B : F# : C# : F : Bb : Eb : Ab : Db : Gb

Не така


Изпълнител: ФСБ

Изпратил: sotislav@yahoo.com (Сотислав Божков)


Е

e--0-----------2--------0----------------4---------------5----I
B--0-----------5--------5----------------3---------------2----I
G--1-----------5--------5----------------1---------------2----I
D--2-----------4--------4----------------2---------------2----I
A--2--------------------3--------------------------------0----I
E--0----------------------------------------------------------I
-[E]Не така[Esus2/aug]..........без една[Е7] сълза през ра[A]мо


e----4------------------4-----------------2-------2----3------I
B----4------------------5-----------------2-------4----4------I
G----5------------------4-----------------3-------4----4------I
D----6------------------6-----------------4-------4----5------I
A----6------------------4-----------------4-------2-----------I
E----4------------------4-----------------2-------2---3-------I
...[G#]без последен по[C#m7]глед за разд[F#]яла[B][Baug]


e--0--------2----0----------4-----0------5--------------------I
B--0--------5----5----------3-----3------2--------------------I
G--1--------5----5----------1-----1------2--------------------I
D--2--------4----4----------2-----2------2--------------------I
A--2-------------3-----------------------0--------------------I
E--0----------------------------------------------------------I
..[E].ти нали[Esus2/aug],зна[E7]еш че боли[A]

e--4------------------4----------------2----------------2---3-I
B--4------------------5----------------2----------------4---4-I
G--5------------------6----------------2----------------4---4-I
D--6------------------6----------------4----------------4---5-I
A--6------------------4----------------4----------------2-----I
E--4------------------4----------------2----------------2-----I
..[G#]и че всичkо cвъ[Cm#]ршва, но не[Fm#] така,не така[B,Baug]

e--5-------------7-------------------0----------------4--2--0-I
B--2-------------4-------------------0----------------3--3--3-I
G--2-------------4-------------------1----------------1--1--1-I
D--2-------------4-------------------2----------------2--0--0-I
A--0---------------------------------2------------------------I
E------------------------------------0------------------------I
...[A]Любовта е ст[B]их, безкрай,наш[E]епващ нещо св[E7]ято

e--5-------------7------------------4------4-4-4--2--0-------I
B--2-------------4------------------5------3-3-3--3--3-------I
G--2-------------4------------------6------1-1-1--1--1-------I
D--2-------------4------------------6------2-2-2--0--0-------I
A--0--------------------------------4------------------------I
E-----------------------------------4------------------------I
...[A]и остава тя[B] във нас зави[C#m]наги-и[E7]

e--5-------------7----------------4-------------2------------I
B--2-------------4----------------5-------------2------------I
G--2-------------4----------------6-------------3------------I
D--2-------------4----------------6-------------4----1-1h2---I
A--0------------------------------4-------------4---4--------I
E---------------------------------4-------------2------------I
..[A]любовта и вр[B]емето не спи[C#m]рат нито [F#}миг,[Fm#]
e---2---------------------2---------------3------------------I
B---2---------------------4---------------4------------------I
G---2---------------------4---------------4------------------I
D---4---------------------4---------------5------------------I
A---4---------------------2----------------------------------I
E---2---------------------2----------------------------------I
...[Fm#].само ние с тебе, [B]вече ще сме др[Baug]уги
  

         
  
Не така,без една сълза през рамо. 

Зная, че е време за раздяла, 

но нека тя бъде като обичта - 

силна и горчива, а не така, 

не така... 





акорди за китара

акорди за пиано

видео клип


© 2007-2017 akordite.com - Акорди и таблатури на български песни

Вход






Забравена парола
Нямате достъп?
Регистрирайте се!!!

Последни песни



Статистика

Песни: 1411
Потребители: 12552

В момента онлайн:

1 гост