[Всички песни]
[Скрий Акордите]
[Редактирай песента]

Печат
Гама
C : G : D : A : E : B : F# : C# : F : Bb : Eb : Ab : Db : Gb

Бяла тишина


Изпълнител: Георги Минчев и Щурците
Текст: Богомил Гудев
Музика: Борис Карадимчев
Албум: Бяла тишина
Изпратил: bgguitarist95

  интродукция
е 4-5-7-5-4--------------------------||
b -------------4---------------------||
g ---------------6-4-----------------||
d -------------------7-6-4-----------||
a -------------------------4-6-7--7--||
e -----------------------------------||
  между I-ви и II-ри куплет
e 12-------------
b --12109-7---9--
g ----------9----
d ---------------
a ---------------
e ---------------
  соло
е ------4---------------4---4-5-4---4---4---------------4---4-5-7-9-7------
b 4-5-7---7-5-4-5-4-5-7---7-----------7---7-5-4-5-4-5-7---7-----------10910
g -------------------------------------------------------------------------
d -------------------------------------------------------------------------
a -------------------------------------------------------------------------
e -------------------------------------------------------------------------

e ---7-9-7-9-10101212101210108-8-101012121010-8-8-1010-8-7-9-9-7-7---------
b 910--------------------------------------------------------------1010-9--
g -------------------------------------------------------------------------
d -------------------------------------------------------------------------
e -------------------------------------------------------------------------
a -------------------------------------------------------------------------
e -------------------------------------------------------------------------

e --7-7-----7-7------------------------------------||
b 10----1010----1010-9-9-7-9-7-7-5-7-5-5-4-4---5---||
g -------------------------------------------------||
d -------------------------------------------------||
a -------------------------------------------------||
e -------------------------------------------------||

Това е таблатурата на интродукцията и цигулковото соло в оригиналната
тоналност - ми мажор. Скоро ще кача функциите на баса и инструментите в
куплета и припева

акорди за китара

акорди за пиано

видео клип


© 2007-2017 akordite.com - Акорди и таблатури на български песни

Вход






Забравена парола
Нямате достъп?
Регистрирайте се!!!

Последни песни



Статистика

Песни: 1411
Потребители: 12640

В момента онлайн:

9 госта и 1 потребител
  • Jon Lord