[Всички песни]
[Скрий Акордите]
[Редактирай песента]

Печат
Гама
C : G : D : A : E : B : F# : C# : F : Bb : Eb : Ab : Db : Gb

Миналото в нас


Изпълнител: Революция Z

  Куплет 1 :

E------------------------------------------------------------------------
B------------------------------------------------------------------------
G--7-7----10-10-10---5-5-5---3-3-3---3-3-3---5-5-5---7-7-7---------------
D--7-7----10-10-10---5-5-5---3-3-3---3-3-3---5-5-5---7-7-7---------------
A--5-5----8--8--8----3-3-3---1-1-1---1-1-1---3-3-3---5-5-5---------------
E------------------------------------------------------------------------
 Повтаря се 5 пъти 

  Припев 1 : 

E---------------------
B---------------------
G--10--5---7--3-------
D--10--5---7--3-------
A--8---3---5--1-------   
E--------------------- 
   Повтаря се 2 пъти 
 
  Куплет 2 : 
 
E------------------------------------------------------------------------
B------------------------------------------------------------------------
G--7-7----10-10-10---5-5-5---3-3-3---3-3-3---5-5-5---7-7-7---------------
D--7-7----10-10-10---5-5-5---3-3-3---3-3-3---5-5-5---7-7-7---------------
A--5-5----8--8--8----3-3-3---1-1-1---1-1-1---3-3-3---5-5-5---------------
E------------------------------------------------------------------------
  Повтаря се 4 пъти

 Припев 2 : 

E----------------------
B----------------------
G--10--5---7---3-------
D--10--5---7---3-------
A--8---3---5---1-------   
E---------------------- 
   Повтаря се 6 пъти 

 Припев 3 : 

E----------------------
B----------------------
G--10--5---7---3-------
D--10--5---7---3-------
A--8---3---5---1-------   
E---------------------- 
 Повтаря се 4 пъти 

 Финал :

E---------------
B---------------
G-7-7-----------
D-7-7-----------
A-5-5-----------   
E--------------- 
 






акорди за китара

акорди за пиано

видео клип


© 2007-2017 akordite.com - Акорди и таблатури на български песни

Вход






Забравена парола
Нямате достъп?
Регистрирайте се!!!

Последни песни



Статистика

Песни: 1411
Потребители: 12750

В момента онлайн:

4 госта