[Всички песни]
[Скрий Акордите]
[Редактирай песента]

Печат
Гама
C : G : D : A : E : B : F# : C# : F : Bb : Eb : Ab : Db : Gb

Мотам се


Изпълнител: the pomorians

Изпратил: souljah 

 [Am]Мотам се напред назад
 [Dm]черно ми е [G]вие ми се [C]свят.[E]
 [Am]Возим се в пътнически влак
 [Gm]и пак се мотам Аз напред..[Am]назад.

 [Am]Мотам се напред назад
 [Dm]черно ми е [G]вие ми се [C]свят.
 [Am]Возим се в пътнически влак
 [G]и пак се мотам Аз напред..[A]назад.

 [A]Падна ми веригата спука ми се гумата [G]ма-ма-ма-ма-ми-[A]яяяяя х2


 [Am]Покажи ми дай ми светлина
 [Dm]дяволите..[G]своите да [C]изгоря.[E] 
 [Am]Моля те Господи дай ми ключа
 [Gm]за вратата към света на забранените [Am]неща

 [Am]Покажи ми дай ми светлина
 [Dm]дяволите..[G]своите да [C]изгоря.[E]
 [Am]Моля те Господи дай ми ключа
 [G]за вратата към света на забранените [A]неща.х2


Падна ми веригата спука ми се гумата ма-ма-ма-ма-ми-яяяяя х4

Падна ми веригата спука ми се гумата ма-ма-ма-ма-ми-яяяяя х4

e--------------------------------------------------------------
B------5--1--5---1-3-1------------------------6----------------
G-----------------------3-2----------7-7-7-7----9-7-5-7/9------
D----7---------------------------------------------------------
A--------------------------------------------------------------
E--------------------------------------------------------------

e--------------------------------------------------------------
B------5--1--5--1-3-1------------------------------------------
G---------------------3-2----------------------7-6-------------
D----7-------------------------------5-5--7/8------8-7---------
A--------------------------------------------------------------
E--------------------------------------------------------------





акорди за китара

акорди за пиано

© 2007-2017 akordite.com - Акорди и таблатури на български песни

Вход






Забравена парола
Нямате достъп?
Регистрирайте се!!!

Статистика

Песни: 1446
Потребители: 13188

В момента онлайн:

4 госта и 2 потребителя
  • груйчо
  • kokod90