[Всички песни]
[Покажи Акордите]
[Редактирай песента]

Печат
Гама
Am : Em : Bm : F#m : C#m : G#m : D#m : A#m : Dm : Gm : Dm : Fm : Bbm : Ebm : Abm

Надеждата


Изпълнител: БТР
Текст: Славчо Николов
Музика: Славчо Николов
Албум: Мечти
Изпратил: Бат' Влади  (bat_vlado@yahoo.com)

FILL:
D        D         D  D2 D2     D2 D4 D  D2 G

E--2--------2---------2--0--0------0--3--2--0--3---
H--3--------3---------3--3--3------3--3--3--3--0---
G--2--------2---------2--2--2------2--2--2--2--0---
D--0--------0---------0--0--0------0--0--0--0--0---
A--------------------------------------2---
E-------------------------------3---


Intro: FILL x 2

Куплет:

D-0---------
A---4-2------
E---------
Върви денят към залеза си вечен,
а тук боли, където пулсът е сърдечен.

A-5-4-2---
И няма как, все някога е ден последен.
И ще боли, когато пътят е далечен.

A--------
E-3-2-0---


Ти мълчиш, със поглед всичко казваш.
A-----
E-3-2-0--
Em      A  пауза    FILL    E-5-3-2-2P3-5--    FILL
Раздялата е между нас.     H-3------------
G-2-------------
D-0-----------

A-5-4-2---
Ти молиш мен в нощта последна да сме двама,
но знаеш, че ако на тръгна ще остана.

A-------
E-3-2-0--
Във мрака тихо едно момиче плаче,
E-3-2-0
а аз оставам сам със вятъра в нощта.

ПРИПЕВ: Не зная кога, не зная къде,
аз искам само пак да срещна теб.
Почувствай сама как обича едно сърце.
Не зная кога, не зная къде,
аз вярвам,че ще дойде този ден.
Спомни си за мен,
когато тичаш в дъжда студен.

Solo:...

A------
E-3-2-0--
Ти мълчиш, със поглед всичко казваш.
E-3-2-0--
Раздялата е вече между нас.
E-3-2-0--
Във мрака бнавно едно момиче тръгва,
E-3-2-0
а аз оставам сам със вятъра в нощта.

ПРИПЕВ: Не зная кога, не зная къде,
аз искам само пак да срещна теб.
Почувствай сама как обича едно сърце.
Не зная кога, не зная къде,
аз вярвам,че ще дойде този ден.
Спомни си за мен,
Остава дне-е-ес             Надеждата.
FILL
Haдеждата...

G -----------------------7(флажолет)
D -----0---------0-------0--
A ---2---2-----0---0-------
E -3---------2---------------


акорди за китара

акорди за пиано

© 2007-2017 akordite.com - Акорди и таблатури на български песни

Вход






Забравена парола
Нямате достъп?
Регистрирайте се!!!

Статистика

Песни: 1490
Потребители: 13516

В момента онлайн:

7 госта