akordite.com - Акорди, таблатури и текстове на български песни

[Всички песни]
[Скрий Акордите]
[Редактирай песента]

Печат
Гама
C : G : D : A : E : B : F# : C# : F : Bb : Eb : Ab : Db : Gb

Море пиле


Изпълнител: Народни песни

Изпратил: Петър Събев (http://psabev.hit.bg)

АРАНЖИМЕНТ: Куку-бенд


Intro:

E ---------3----------3----------3----------3-
H -----1-3-3------1-3-3------1-3-3------1p3-3-
G ---0----------0----------0----------0-------
D --------------------------------------------
A -3----------3---------3-----------3---------
E -------------------------------------------- x 3
                    
E ---------3----------3----------(15)-(13)-(12)
H -----1-3-3------1-3-3------1-3--------------
G ---0----------0----------0------------------
D --------------------------------------------
A -3----------3---------3---------------------
E --------------------------------------------

Море, пиле, славей пиле, [G]я запей ми [G]песничица! x 2
Да се чу[G]е надале[C]ко, [G]надале[C]ко [G]преко Вар[C]дар! x 2

Intro:...

Преко Вардар от Велешко, от Велешко до Прилепско! x 2
Да се чуе надалеко, надалеко, преко Вардар! x 2

Intro (със соло на кларинет):...

Там се бие славен юнак, славен юнак Питу Гули! x 2
Да се чуе надалеко, надалеко преко Вардар! x 2

Intro (със соло на китара):... (да се чуе, да се чуе) ...
Финал - на кларинетп

акорди за китара

акорди за пиано

видео клип


© 2007-2017 akordite.com - Акорди и таблатури на български песни

Вход






Забравена парола
Нямате достъп?
Регистрирайте се!!!

Статистика

Песни: 1446
Потребители: 13375

В момента онлайн:

22 госта и 1 потребител
  • Серж Димов